The Prom Kings - Better Man Chords & Tabs

 

Better Man Chords & Tabs

The Prom Kings Chords & Tabs

Version: 1 Type: Tab

Better Man Tab

----------------------------------------------------------------------------
                           The Prom Kings "Better Man"
----------------------------------------------------------------------------
Tabbed By: Enllewis
email: tel_61@hotmail.com


This song starts out acoustic so I just tried to make it ALL sound right acoustic
(on the album the chorus is heavily distorted). To get it to sound correctly just
drop your E string to a C and leave the rest standard. It's slightly tricky to get
the chorus to sound right because i combined two guitars into one. If you find any
mistakes email me. I figured out this version of the song in about 10 minutes so
you may find some. ENJOY.

p= pull off/on
x= mute


intro(0:00):
e---------------------------------------------------------------------|
B---------------------------------------------------------------------|
G---------------------------------------------------------------------|
D-2----2-2-2--2--2p3p2--2----2-2-2--2--0p2-2--2----2-2-2--2--2p3p2----|
A--0----0------0---------0----0------0---------0----0------0-------3--|
C-2-2------0----0-------2-2------0----0-------2-2------0----0------5--|


Chorus(0:12):
e------------------------------------------------------------------|
B------------------------------------------------------------------|
G-4--4-4-4--4-4-4p5p4-0--0-0-0--0-0---0-4--4-4-4--4-4-4p5p4-0------|
D-2------5------------x------x----------2------5------------x------|
A-0------3------------3------3----------0------3------------3------|
C--------0------------5------0-----------------0------------5------|


Verse(0:24):
e------------------------------------------------------------------------|
B------------------------------------------------------------------------|
G------------------------------------------------------------------------|
D-2----2-2-2--2--2p3p2--2----2-2-2--2--0p2-2--2----2-2--2-2--2p3p2-------|x2
A--0----0------0---------0----0------0---------0----0------0-------3--3--|
C-2-2------0----0-------2-2------0----0-------2-2-------0---0------5--5--|

[ Tab from: http://www.guitartabs.cc/tabs/t/the_prom_kings/better_man_tab.html ]
Chorus(0:50):
e------------------------------------------------------------------|
B------------------------------------------------------------------|
G-4--4-4-4--4-4-4p5p4-0--0-0-0--0-0---0-4--4-4-4--4-4-4p5p4-0---0--|
D-2------5------------x------x----------2------5------------x---x--|x2
A-0------3------------3------3----------0------3------------3---3--|
C--------0------------5------0-----------------0------------5---5--|
  (Maybe chance...)

Verse(1:15):
e-------------------------------------------------------------------------|
B-------------------------------------------------------------------------|
G-------------------------------------------------------------------------|
D-2----2-2-2--2--2p3p2--2----2-2-2--2--0p2-2--2----2-2-2-2--2p3p2p0-------|x3
A--0----0------0---------0----0------0---------0----0-----0---------3--3--|
C-2-2------0----0-------2-2------0----0-------2-2------0---0--------5--5--|


Chorus(1:52):
e------------------------------------------------------------------|
B------------------------------------------------------------------|
G-4--4-4-4--4-4-4p5p4-0--0-0-0--0-0---0-4--4-4-4--4-4-4p5p4-0---0--|
D-2------5------------x------x----------2------5------------x---x--|x2
A-0------3------------3------3----------0------3------------3---3--|
C--------0------------5------0-----------------0------------5---5--|
  (Maybe chance...)


Bridge(2:17):
e---------------------------------|
B---------------------------------|
G---------------------------------|
D-0-0-0-0p2-----3p5p3-------------|x3
A-----------3---------3-3-3-3-3-3-|
C-----------0---------5-5-5-5-5-5-|
 (and WHY!...)
e-----------------------------------------|
B-----------------------------------------|
G-----------------------------------------|
D-0-0-0-0p2-----3p5p3---------------------|
A-----------3---------3-3-3-3-3---3-3-3-3-|
C-----------0---------5-5-5-5-5---5-5-5-5-|


Chorus(2:45):
e------------------------------------------------------------------|
B------------------------------------------------------------------|
G-4--4-4-4--4-4-4p5p4-0--0-0-0--0-0---0-4--4-4-4--4-4-4p5p4-0---0--|
D-2------5------------x------x----------2------5------------x---x--|x4
A-0------3------------3------3----------0------3------------3---3--|
C--------0------------5------0-----------------0------------5---5--|
  (Maybe chance...)


I love this song and if you bought the CD i'm sure you do TOO!!! now rock out...acoustic style!