The Prom Kings - Angels Chords & Tabs

 

Angels Chords & Tabs

The Prom Kings Chords & Tabs

Version: 1 Type: Tab 0 ratings
1 star 2 stars 3 stars 4 stars 5 stars
comments

Angels Tab

   
============================ The Prom Kings - Angels ========================

Album: The Prom Kings (S/T)
Tabbed By: Laurens Brunt

Tuning: Standard (EADGBE)

Intro/Verse
E---------------    ------------------------|
A---------------    ------------------------|
D-5-3-6-5-3H5--- 2x -1-1-1-1-1-0-0-3-3-3----|
G---------------    ------------------------|
B---------------    ------------------------|
E---------------    ------------------------|

Pre-Chorus

Hit the lower strings and turn up your volume to get that lead-in effect
E-----------|
A-----------|
D-----------|
G-xxxx------|
B-xxxx------|
E-xxxx------|
[ Tab from: http://www.guitartabs.cc/tabs/t/the_prom_kings/angels_tab.html ]
Chorus
E---------------    -----------------------------|
A---------------    -----------------------------|
D---------------    -----------------------------|
G-5-3-6-5-3/5--- 2x -----------------------------|
B-3-1-4-3-1/3---    -33333333-888888-66-xx-0/6---|
E---------------    -11111111-666666-44-xx-0/4---|

Underneath the 2nd verse, the 2nd guitar plays
E--13-12-8--|
A-----------|
D-----------|
G-----------|
B-----------|
E-----------|

Bridge
E-----------  -------------|
A-----------  -------------|
D-----------  -------------|
G-----------  -------------|
B-6-6xx6/8--  -6--8--6--8--|  Mute the last chord after you did stroke it
E-4-4xx4/6--  -4--6--4--6--|

End
Play the Chorus a few times and end with this chord
E----
A----
D----
G----
B-3-- Let it ring for a while
E-1--

If you feel like contacting me, mail to d3v1lmail(at)gmail.com

X = Ghost note
H = Hammer
/ = Slide
Comments