The Prize Fight - Goodnight Kiss Chords & Tabs

 

Goodnight Kiss Chords & Tabs

The Prize Fight Chords & Tabs

Version: 1 Type: Tab 0 ratings
1 star 2 stars 3 stars 4 stars 5 stars
comments

Goodnight Kiss Tab

   
this is a band from the ECA Record Label
formed in 2002 in the Pennsylvania/NJ area

-------------------------------------------------------------------------------
			     Goodnight Kiss - The Prize Fight
-------------------------------------------------------------------------------

Tabbed by: Chris Wallitsch	
Email: wallace2o0o@optonline.net

Artist: The Prize Fight
Song: Goodnight Kiss
Album: The Prize Fight EP
Tuning: Standard: E, A, D, G, B, E
Timing: 4/4

| ~  vibrato
| x  Mute note


Intro/Chorus
e|---------------------------------------------------------------------------|
B|---------------------------------------------------------------------------|
G|-4--3--4--4----------------------------------------------------------------|
D|-4--4--4--4--4-------------------------------------------------------------|
A|-2--2--2--2--4-------------------------------------------------------------|
E|-x--x--x--0--2-------------------------------------------------------------| x2

Pre-Verse  **palm mute this part
e|---------------------------------------------------------------------------|
B|---------------------------------------------------------------------------|
G|-3--3--3--4--3--3--3--3--4--3--3--3--3--4--3--3--3--3--4--3----------------|
D|-4--4--4--4--4--4--4--4--4--4--4--4--4--4--4--4--4--4--4--4----------------|
A|-2--2--2--2--2--2--2--2--2--2--2--2--2--2--2--2--2--2--2--2----------------|
E|-x--x--x--x--x--x--x--x--x--x--0--0--0--0--0--0--0--0--0--0----------------| x2

Verse
e|---------------------------------------------------------------------------|
B|---------------------------------------------------------------------------|
G|-4-----4-----------4-----4-----4-----------4-------------------------------|
D|-4-4-----4-----4-----4--4--4-----4-----4----------------------------------|
A|-2-----------2-----------2-------------------------------------------------|
E|-x-----------------------0-----------0-------------------------------------| x2

Pre-Chorus
e|---------------------------------------------------------------------------|
B|---------------------------------------------------------------------------|
G|-4--x-4~--4---------------------------------------------------------------|
D|-4--x-4~--4--4------------------------------------------------------------|
A|-2--x-2~--2--4------------------------------------------------------------|
E|-x--x--x---0--2------------------------------------------------------------| x2

Chorus
e|---------------------------------------------------------------------------|
B|---------------------------------------------------------------------------|
G|-4--3--4--4----------------------------------------------------------------|
D|-4--4--4--4--4-------------------------------------------------------------|
A|-2--2--2--2--4-------------------------------------------------------------|
E|-x--x--x--0--2-------------------------------------------------------------| x2

Bridge
e|---------------------------------------------------------------------------|
B|--------0------------------------------------------------------------------|
G|-----------------4---------------------------------------------------------|
D|----4---------4------------------------------------------------------------|
A|-2---------2---------------------------------------------------------------|
E|---------------------------------------------------------------------------| x1
[ Tab from: http://www.guitartabs.cc/tabs/t/the_prize_fight/goodnight_kiss_tab.html ]
Breakdown
e|---------------------------------------------------------------------------|
B|---------------------------------------------------------------------------|
G|---------4-----------------------------------------------------------------|
D|-9-9--8--4--4--------------------------------------------------------------|
A|-9-9--8--2--4--------------------------------------------------------------|
E|-7-7--6--0--2--------------------------------------------------------------| x4

Breakdown
e|---------------------------------------------------------------------------|
B|---------------------------------------------------------------------------|
G|---------4-----4-----------------------------------------------------------|
D|-9-9--8--4--4--4--4-4~----------------------------------------------------|
A|-9-9--8--2--4--2--4-4~----------------------------------------------------|
E|-7-7--6--0--2--x--2-2~----------------------------------------------------| x1

Shorter Verse
e|-------------------------------------------------------------------|
B|-------------------------------------------------------------------|
G|-4--4--4--4--------------------------------------------------------|
D|-4-4--4--4--------------------------------------------------------|
A|-2--2--2--2--------------------------------------------------------|
E|-x--0--x--0--------------------------------------------------------| x1

Pre-Chorus
e|----------------------------------------------------------------------------|
B|----------------------------------------------------------------------------|
G|-4--x-4~--4----------------------------------------------------------------|
D|-4--x-4~--4--4-------------------------------------------------------------|
A|-2--x-2~--2--4-------------------------------------------------------------|
E|-x--x--x---0--2-------------------------------------------------------------| x2

Chorus
e|---------------------------------------------------------------------------|
B|---------------------------------------------------------------------------|
G|-4--3--4--4----------------------------------------------------------------|
D|-4--4--4--4--4-------------------------------------------------------------|
A|-2--2--2--2--4-------------------------------------------------------------|
E|-x--x--x--0--2-------------------------------------------------------------| x3

Ending
e|---------------------------------------------------------------------------|
B|---------------------------------------------------------------------------|
G|-4--3--4--4-----4-----4~---------------------------------------------------|
D|-4--4--4--4--4--4--4-4~---------------------------------------------------|
A|-2--2--2--2--4--2--4-2~---------------------------------------------------|
E|-x--x--x--0--2--0--2-x----------------------------------------------------| x1




Lyrics:
Don't say goodnight
And walk away without that kiss that you owe me
Don't close your eyes
And say you don't want me
I wish that you'd want me now

You know that I promised I'd always have an ear for you to lend
But now your syllables are phrases I don't understand

Calling out in desperation
Fighting off this suffocation
Screaming out loud
Wanting so bad to be heard

Don't say goodnight
And walk away without that kiss that you owe me
Don't close your eyes
And say you don't want me
I wish that you'd want me now

When the days ends and you're cold from standing out alone
The only voice of recognition is your own
Crying out in desperation
Begging to be heard
But only you can hear your words

You know that I promised I'd always have an ear for you to lend
You know that I promised...

Calling out in desperation
Fighting off this suffocation
Screaming out loud
Wanting so bad to be heard

Don't say goodnight
And walk away without that kiss that you owe me
Don't close your eyes
And say you don't want me
I wish that you'd want me now

Don't say goodnight
And walk away without that kiss that you owe me
Don't close your eyes
And say you don't want me
I wish that you'd want me 
Don't that you want me
I know that you want me now
Comments