The Police - Walking On The Moon Chords & Tabs

 

Walking On The Moon Chords & Tabs

The Police Chords & Tabs

Version: 1 Type: Bass Tab 0 ratings
1 star 2 stars 3 stars 4 stars 5 stars
comments

Walking On The Moon Bass Tab

#----------------------------------PLEASE NOTE---------------------------------#
#This file is the author's own work and represents their interpretation of the #
#song. You may only use this file for private study, scholarship, or research. #
#------------------------------------------------------------------------------##
From: mike@honet7.att.com

WALKING ON THE MOON	(as recorded by The Police)

Original music by Sting

h = hammer on for next note
p = pull off for next note
s = slide up to next note
(n) = optional fingered note

This is a simple song to play. I use it when I jam with my Buds.
There's a lot of space.
[ Tab from: http://www.guitartabs.cc/tabs/t/the_police/walking_on_the_moon_btab.html ]
Verse
|---------------------------------------------------------------------------
|------------------s3---2----------------------s3---2-----------------------
|---3---3---5---------------3-------3---3---5-----------3-------------------
|---------------------------------------------------------------------------
	Giant steps are what you take...

Riff into chorus     
|-------------------
|-------5---5---5---
|---5---------------
|-------------------

Chorus
|---------------------------------------------------------------------------
|---------------3---3---3---3---------------5---5---5---5-------------------
|---1---1---1-------------------3---3---3-----------------------------------
|---------------------------------------------------------------------------
	Some may say...

Comments