The Police - Synchronicity 2 Chords & Tabs

 

Synchronicity 2 Chords & Tabs

The Police Chords & Tabs

Version: 1 Type: Tab 0 ratings
1 star 2 stars 3 stars 4 stars 5 stars
comments

Synchronicity 2 Tab

Song: Synchronicity 2
Artist: The Police
Album: Synchronicity
[ Tab from: http://www.guitartabs.cc/tabs/t/the_police/synchronicity_2_tab.html ]
abbed by Jack
mail:  jonnyjack00@aol.com
NOTE: the entire song is tabbed except the weird guitar noises 
eard in the beginning and on other parts.
Key:
 = pull off
 = palm mute
Intro (play 3x)
---7p5--7p5--7p5----7p5-7p5---7p5--7p5--7p5--7p5-7p5--
--7p5--7p5--7p5----7p5-7p5---7p5--7p5--7p5--7p5-7p5--
-----------------------------------------------------
-----------------------------------------------------
-----------------------------------------------------
-----------------------------------------------------
then finish with this
---7p5--7p5--7p5----7p5-7p5---7p5--7p5--7p5--------
--7p5--7p5--7p5----7p5-7p5---7p5--7p5--7p5--------
---------------------------------------------77---
-----------------------------------------------77-
--------------------------------------------------
--------------------------------------------------
Main Riff (play 4x)
-----------------------------
----------------------------
----------------------------
---7---7---9999-7-99999-77--
-----4----------------------
-5--------------------------
(play 2x)
------------------------
-----------------------
-6-6--7-7--8-8--7-7----
-6-6--7-7--8-8--7-7----
-4-4--5-5--6-6--5-5----
-----------------------
Then play this 3 times and add stuff in () on 3rd
Riff 2
-------------------------------------------------
--------66----------66-----(3333-5--33333--5)---
-0*0*-55--55-0*0*-44--44---(3333-5--33333--5)---
------------------------------------------------
------------------------------------------------
------------------------------------------------

his part looks confusing but play it slowly and listen
o the song carefully and you'll get it ;)
Riff 3
-------------------------------------------------------------
------------------------------------------------------------
--4--4--5-5--5---4--4--7--7----------------------------77---
---2--2----2--2---2--2--5--5--6-6-6--7-7--7--6-6--6--6---77-
-0--0--0-0--0--0---2--2--5--5----7-7----8--8----7--7--7-----
----------------------------------7-7----8--8----7--7-------
Repeat Main Riff.
epeat Riff 2. 
Next, do this version of Riff 3
Alternate Riff (3)
----------------------------------------------------------------
---------------------------------------------------------------
--4--4--5-5--5---4--4--7--7------------------------------------
---2--2----2--2---2--2--5--5--6-6--6--7-7--7--6-6--6--6-6--6---
-0--0--0-0--0--0---2--2--5--5----7--7----8--8----7--7----7--7--
----------------------------------7--7----8--8----7--7----7--7-
Do some of the intro.
epeat Main Riff, Riff 2 and finish off this awesome song 
ith Finale Riff.
Finale Riff 
epeat 2nd half of riff til fade out.
---------------------------------------------------------------------
---------------------------------------------------------------------
-4--4--5-5--5---4--4--7--7----------------------------10-10---10-----
--2--2----2--2---2--2--5--5-6-6--6--7-7--7--9-9---9--------10---10---
0--0--0-0--0--0---2--2--5--5---7--7----8--8----10--10--------10---10-
--------------------------------7--7----8--8----10--10---------------

Comments