The Police - Synchronicity 1 Chords & Tabs

 

Synchronicity 1 Chords & Tabs

The Police Chords & Tabs

Version: 1 Type: Bass Tab 0 ratings
1 star 2 stars 3 stars 4 stars 5 stars
comments

Synchronicity 1 Bass Tab

   
THE POLICE - "Synchronicity I" - Bass Tab

Common Time(4/4)
Standard Tuning(EADG)

VERSE:
|-----------------------------------|
|*---------------------------------*|
|*-3-3-3-3-3-3-3-3-3-3-3-3-3-3-3-3-*|
|-----------------------------------|
   1 e & a 2 e & a 3 e & a 4 e & a
[ Tab from: http://www.guitartabs.cc/tabs/t/the_police/synchronicity_1_btab.html ]
CHORUS:
|-----------------------------------|
|*---------------------------------*|
|*-8-8-8-8-8-8-8-8-8-8-8-8-8-8-8-8-*|
|-----------------------------------|
   1 e & a 2 e & a 3 e & a 4 e & a

INTERLUDE:
|-----------------------------------|
|*---------------------------------*|
|*-0-0-0-0-0-0-0-0-0-0-0-0-0-0-0-0-*|
|-----------------------------------|
   1 e & a 2 e & a 3 e & a 4 e & a

END:
|-------------|
|*-----------*|
|*-0-5-5-3---*|
|-------------|
   1 2 & 3 4

By: Johari Taylor
E-mail: viking@powerup.com.au
More Bass tabs: http://www.powerup.com.au/~viking/basstab.htm
Comments