The Police - Roxanne Chords & Tabs

 

Roxanne Chords & Tabs

The Police Chords & Tabs

Version: 2 Type: Bass Tab 0 ratings
1 star 2 stars 3 stars 4 stars 5 stars
comments

Roxanne Bass Tab

Title: Roxanne
Artist: The Police

Ok here's the whole thing laid out for you..very easy.

Key-
~ = Let note ring


Intro/Verse

x]----------------------------------------
x]---5-5---3-3--1-1--0-0------------------
x]------------------------3-3-------------
x]------------------------------1-1---3~~~


Modified Verse

x]-----------------------------------------
x]-----------------------------------------
x]------3-3------------------3-3-----------
x]----------1-1--3-3--3-3----------1-1--3~~


Pre Chorus Riff
[ Tab from: http://www.guitartabs.cc/tabs/t/the_police/roxanne_btab_ver_2.html ]
x]---------------------------------
x]---------------------------------
x]---------------------------------
x]-----3-3-3-3-3-3-3-3-3-3-3-3-3---


Chorus

x]--------------------------------------------------------------------------
x]----------------------1---------------------------------------------------
x]-1-1-1-1-1-1-1-1-1-1-------------------------1-----------------------3----
x]-------------------------1-1-1-1-1-1-1-1-1-1---3-3-3-3-3-3-3-3-3-3-3------


After Chorus Riff

x]-----------------------------------------
x]-----------------------------------------
x]-----------------------------------------
x]-----3-3--3-1--1-3--3-1------------------



There ya go. You got the whole tab. 
any questions, email me at drummerdude713@yahoo.com
or i-m me at DoTheDew up urs
Tabbed: 3-30-04
Comments