The Police - Next To You Chords & Tabs

 

Next To You Chords & Tabs

The Police Chords & Tabs

Version: 1 Type: Bass Tab 0 ratings
1 star 2 stars 3 stars 4 stars 5 stars
comments

Next To You Bass Tab

Next to You
by the Police
transcribed by kevin gardner code@wam.umd.edu
prepared for computer tab by kevin gardner code@wam.umd.edu
                        
bass lines for verse one

|---------------------------------| --------
|---------------------------------|  8X    |
|-5-5-0-0-0-----------------------|        |
|--------------0-pound------------|  8th time 
                                    --donŐt pound

bass line for chorus one
|--------------------------------------|
|--------------------------------------|
|-4-pound--5-pound----5-5h7--5-5-5-5h7-|
|-------------------0------------------|
[ Tab from: http://www.guitartabs.cc/tabs/t/the_police/next_to_you_btab.html ]
|--------------------------------------|
|--------------------------------------|
|-4-pound--5-pound----5-5h7---5-5------|
|-------------------0------------------|

bass lines for verse two 

|---------------------------------| --------
|---------------------------------|  4X    |
|-5-5-0-0-0-----------------------|        |
|--------------0-pound------------|  4th time 
                                    --donŐt pound

bass line for chorus two
|--------------------------------------| <----
|--------------------------------------|     2X
|-4-pound--5-pound----5-5h7--5-5-5-5h7-|     |
|-------------------0------------------| <----

|----------------------------|
|----------------------------|
|-5-pound--7-pound----5-pound|
|----------------------------|

Comments