The Police - Fall Out Chords & Tabs

 

Fall Out Chords & Tabs

The Police Chords & Tabs

Version: 1 Type: Bass Tab 0 ratings
1 star 2 stars 3 stars 4 stars 5 stars
comments

Fall Out Bass Tab

  This is the part when the intro guitar riff plays:

   G----------------------------------------------------------------------
   D-----2-2-2-2-2-2-2-2-2-2-2-2-2-2-2-2-2-2-2-2-2-2-2-2-2-2-2-2-2-2-2-2--
   A----------------------------------------------------------------------
   E----------------------------------------------------------------------


   G----------------------------------------------------------------------
   D-----2-2-2-2-2-2-2-2-2-2-2-2-2-2-2-2-2-2-2-2-2-2-2-2-2-2-2-2-2--------
   A----------------------------------------------------------------------
   E---------------------------------------------------------------2-3-4--

   Then Sting starts to sing:


 "I never thought of leading-I got my own machine-I payd my dues all alone"
[ Tab from: http://www.guitartabs.cc/tabs/t/the_police/fall_out_btab.html ]
   G---------------------------------------------7-7-7-------- 
   D--------------------------------------------0-0-0--------- 
   A-----0-0-4-0-5-0-0------0-0-1-1-2-3------3---------------- 
   E--------------------1-1-------------3-3-3-3--------2-3-4-- 


 "All my sense was breaking-I missed the other people-I knew that I was really alone"


   G---------------------------------------------7-7-7-------- 
   D--------------------------------------------0-0-0--------- 
   A-----0-0-4-0-5-0-0------0-0-1-1-2-3------3---------------- 
   E--------------------1-1-------------3-3-3-3--------2-3-4-- 


  "Fall out-  fight with all the leaders and gangs!"

  Then, repeat the riffs as long as the song plays.

  During the solo, play the second riff. and in the  middle, the first one.

  I think that`s all . Enjoy the song!


If you have any props, doubts, or anything else, write to me:

 mrc19@hotmail.com
















   G----------------------------------------------------------------------
   D----------------------------------------------------------------------
   A----------------------------------------------------------------------
   E----------------------------------------------------------------------
Comments