The Police - Every Little Thing She Does Is Magic Chords & Tabs

 

Every Little Thing She Does Is Magic Chords & Tabs

The Police Chords & Tabs

Version: 2 Type: Bass Tab 0 ratings
1 star 2 stars 3 stars 4 stars 5 stars
comments

Every Little Thing She Does Is Magic Bass Tab

   
Standard Tuning

Sting used an old Fender Precision Bass to record this track.


G|----------|-----------|----------|-----------|----------|-----------|
D|----------|-----------|----------|-----------|----------|-----------|
A|----------|--2-----4--|----------|--2-----4--|----------|--2-----4--|
E|-3-----5--|-----------|-3-----5--|-----------|-3-----5--|-----------|

G|----------|-----------|----------|-----------|
D|----------|-----------|----------|-----------|
A|----------|--2-----4--|----------|--2-----4--|
E|-3-----5--|-----------|-3-----5--|-----------|

G|----7-----------7----------|----7--------------|
D|------5-7-----------5--7---|------5-7----------|
A|-5--------7-5-----5------7-|-5--------7-5-(5)\-|
E|---------------------------|-------------------|


G|--------------------|--------------------|--------------------|-------------|
D|------------4-4--7--|------------4-------|--------------4---7-|-------------|
A|---4----5-5---------|---4----5-5---7--5--|---4----5--5--------|-----4-------|
E|-5------------------|-5------------------|-5------------------|--5----------|

G|----------|-----------|-----------|----------|-----------|
D|----------|-----------|-----------|----------|-----------|
A|-------8--|-----------|--2-----4--|----------|--2-----4--|
E|-6--------|--3-----5--|-----------|-3-----5--|-----------|

G|----------|-----------|----------|-----------|
D|----------|-----------|----------|-----------|
A|----------|--2-----4--|----------|--2-----4--|
E|-3-----5--|-----------|-3-----5--|-----------|

G|----7-----------7----------|----7--------------|
D|------5-7-----------5--7---|------5-7----------|
A|-5--------7-5-----5------7-|-5--------7-5------|
E|---------------------------|-------------------|

G|--------------------|--------------------|--------------------|-------------|
D|------------4-4--7--|------------4-------|--------------4---7-|-------------|
A|---4----5-5---------|---4----5-5---7--5--|---4----5--5--------|-----4-------|
E|-5------------------|-5------------------|-5------------------|--5----------|

G|----------|-----------|-----------|----------|-----------|-----------|
D|----------|-----------|-----------|----------|-----------|-----------|
A|-------8--|--------8--|-----------|----------|-----------|-----------|
E|-6--------|--6--------|--6-----5--|-3-----5--|--3-----5--|--6-----5--|

G|-------------------------------------------------|
D|-------------------------------------------------|
A|-------------------------------------------------|
E|-6-6-6-6-8-8-8-8-6-6-6-6-8-8-8-8-6-6-6-6-8-8-8-8-|

G|---------------|----7--------------|
D|---------------|------5-7----------|
A|---------------|-5--------7-5------|
E|-6-----8---8--8|-------------------|

G|--------------------|---------------------|---------------------|
D|------------4-------|------------4--------|------------4--------|
A|---4----5-5---7--5--|---4----5-5---7-7-5--|---4----5-5---7-7-5--|
E|-5------------------|-5-------------------|-5-------------------|
[ Tab from: http://www.guitartabs.cc/tabs/t/the_police/every_little_thing_she_does_is_magic_btab_ver_2.html ]
G|--------------------|---------------------|---------------------|-------------|
D|------------4-------|---------------------|------------4--------|-------------|
A|---4----5-5---7--5--|---4----5-5-5-5---7--|---4----5-5---7-7-5--|-----4-------|
E|-5------------------|-5--------------7----|-5-------------------|--5----------|

G|----------|-----------|---------------|
D|----------|-----------|---------------|
A|--------8-|--10---12--|-------8-----5-|
E|-6--6-----|-----------|-6-------------|

G|------------------------7-----|------------|-----------|-------------|
D|----------------------7---7---|------------|-----------|-------------|
A|--5--5-5------5--5-5--------5-|----------8-|--10---12--|---------8---|
E|---------7-5------------------|-6-6--6-----|-----------|-6-6--6-----8|

G|----------------7----------|-------------------------------|
D|-----5--7----------5--7----|-----------8-------10--10------|
A|-5--------7--5----------5--|---------8---8--------------10-|
E|---------------------------|-6-----------------------------|

G|-------------------------------|----------------------|
D|-------------------------------|--------8-------------|
A|-10-----5--------------3--5----|------8---8-----------|
E|-----------5-----------------6-|---------------8-----8|

G|-------7------------------7---|---------------------|----------------------|
D|---------5-7----------------7-|---------------------|----------------------|
A|-5-5-5-------7-5---5-5-5------|--------------8----8-|--10-------12---------|
E|------------------------------|-6--6-6-6-6-6--------|--------------------6-|

G|---------------------------------|--------------------------------------|
D|---------------------------------|--------------------------------------|
A|-------8--------8--------------5-|--5----------7---5--------------7---5-|
E|-6--------6--6-------8---8-------|------7---5----------7---5---7--------|

G|------------------7--7-----|--------------------|--------------------------|
D|---------------7-----------|--------------------|------------------10------|
A|---------7--5--------------|--------8--------8--|--10-----10---12-----10---|
E|---7--5-----------------6--|--------------------|------------------------8-|

G|----------------------|--------------------|---------------------|
D|----8----8--10--10--10|-----7-------7-7----|----7-7-------7-7----|
A|----------------------|--5-----5-5------5--|-5------5--5-------5-|
E|-6--------------------|--------------------|---------------------|

G|---------------------|---------------------|--------6--7---------6--7--|
D|----7-7-------7-7----|----7-7-------7-7----|----7-----------7----------|
A|-5------5--5-------5-|-5------5--5-------5-|-5-----------5-------------|
E|---------------------|---------------------|---------------------------|

G|--------6--7---------6--7--|--------6--7---------6--7--|--------6--7---------6--7--|
D|----7-----------7----------|----7-----------7----------|----7-----------7----------|
A|-5-----------5-------------|-5-----------5-------------|-5-----------5-------------|
E|---------------------------|---------------------------|---------------------------|

G|----------|-----------|----------|-----------|----------|-----------|
D|----------|-----------|----------|--------2--|----------|-----------|
A|----------|--2-----4--|----------|--5--------|----4-----|-----5-----|
E|-3-----5--|-----------|-3-----5--|-----------|----------|-----------|

This is pretty fun to play. Listen to the song for timing and you'll be playing it easy.
Comments