The Police - Beds Too Big Without You Chords & Tabs

 

Beds Too Big Without You Chords & Tabs

The Police Chords & Tabs

Version: 2 Type: Bass Tab 0 ratings
1 star 2 stars 3 stars 4 stars 5 stars
comments

Beds Too Big Without You Bass Tab

The Bed's Too Big Without You
-----------------------------

Performed by: The Police
Tabbed by: Malav Trivedi


There are basically 2 parts to the song:


This is the main really cool bass line that we all know and love:
[ Tab from: http://www.guitartabs.cc/tabs/t/the_police/beds_too_big_without_you_btab_ver_2.html ]
G------------------------------|
D------------------------------|
A--7-7-7-7---------------------|
E----------7-7--3-0-0----------|


This is the other bit:

G----------------------------|
D---------5-5----------------|
A----5-7------7-5-7-7--------|
E--7------------------0------|


**General Notes:

That "other bit" needs to be played really fast. If you practice it
enough you'll get the hang of it. It's also kind of hard to play the
"other bit" and sing at the same time.
Comments