The Plain White Tee's - Hey There Delilah Chords & Tabs

 

Hey There Delilah Chords & Tabs

The Plain White Tee's Chords & Tabs

Version: 1 Type: Tab 3 ratings
1 star 2 stars 3 stars 4 stars 5 stars
comments

Hey There Delilah Tab

THE PLAIN WHITE TEES-HEY THERE DELILAH



this song u neeeeed to pick with ur fingers.. if you can play it with
a pick, congratu-darn-lations, use ur fingers be a man!
nah but its alot easier to pick using ur THUMB, POINTER, AND MIDDLE.. practice u'll get it!


practice this..

e|----------------------------------------------|
B|---0---0---0---0---0---0---0---0---0----------|
G|---0---0---0---0---0---0---0---0---0----------|
D|-0---------------0---------------0------------|
A|-----0-------0-------0-------0----------------|
E|---------0---------------0--------------------|


 


INTRO..
e|----------------------------------------------|
B|---3---3---3---3----2---2---2---2-------------|
G|---2---2---2---2----2---2---2---2-------------|
D|-0---0---0---0----4---4---4---4---------------|
A|----------------------------------------------|
E|----------------------------------------------|
[ Tab from: http://www.guitartabs.cc/tabs/t/the_plain_white_tees/hey_there_delilah_tab.html ]
e|----------------------------------------------|
B|---3---3---3---3----2---2---2---2-------------|
G|---2---2---2---2----2---2---2---2-------------|
D|-0---0---0---0----4---4---4---4---------------|
A|----------------------------------------------|
E|----------------------------------------------|

HEY THERE DELILAH WHATS IT LIKE IN NEW YORK CITY

e|----------------------------------------------|
B|---3---3---3---3----2---2---2---2-------------|
G|---2---2---2---2----2---2---2---2-------------|
D|-0---0---0---0----4---4---4---4---------------|
A|----------------------------------------------|
E|----------------------------------------------|

IM A THOUSAND MILES AWAY
e|----------------------------------------------|
B|---3---3---3---3----2---2---2---2-------------|
G|---2---2---2---2----2---2---2---2-------------|
D|-0---0---0---0----4---4---4---4---------------|
A|----------------------------------------------|
E|----------------------------------------------|


YES YOU DO...

e|----------------------------------------------|
B|--3--3--3---2--3--3--3--2---3--3--3--3---2-5--|
G|--4--4--4---2--4--4--4--2---4--4--4--4---2-2--|  
Comments