The Perishers - Trouble Sleeping Chords & Tabs

 

Trouble Sleeping Chords & Tabs

The Perishers Chords & Tabs

Version: 2 Type: Tab 0 ratings
1 star 2 stars 3 stars 4 stars 5 stars
comments

Trouble Sleeping Tab

Regular Tuning
[ Tab from: http://www.guitartabs.cc/tabs/t/the_perishers/trouble_sleeping_tab_ver_2.html ]
----------13--10-------------------------|
----11------------10----10--------10-11--|
-12----10------------------10------------|
-------------------------------12--------|   x3
-----------------------------------------|
-----------------------------------------|

----------13--10------------13--10-------|
----11------------11--11------------11---|
-12----10----------------10--------------|
-----------------------------------------|
-----------------------------------------|
-----------------------------------------|
Comments