The Perishers - Trouble Sleeping Chords & Tabs

 

Trouble Sleeping Chords & Tabs

The Perishers Chords & Tabs

Version: 1 Type: Tab 0 ratings
1 star 2 stars 3 stars 4 stars 5 stars
comments

Trouble Sleeping Tab

-------------------------------------------------------------------------------
			     TROUBLE SLEEPING (Intro) - The Perishers
-------------------------------------------------------------------------------

Tabbed by: lachie (lanklan@hotmail.com)
Tuning: Standard
[ Tab from: http://www.guitartabs.cc/tabs/t/the_perishers/trouble_sleeping_tab.html ]
e|-------1-------------|
B|---------3---------1-|
G|---3-------3-3---3---|
D|-----3---------3-----|
A|---------------------|
E|-3-------------------|X3

e|-------1---------1-----|
B|---------3---------3---|
G|---3-------3-3-------3-|
D|-----3---------3-------|
A|-----------------------|
E|-3---------------------|

===============================================================================
Comments