The Party Of Helicopters - Good Punk Chords & Tabs

 

Good Punk Chords & Tabs

The Party Of Helicopters Chords & Tabs

Version: 1 Type: Tab 0 ratings
1 star 2 stars 3 stars 4 stars 5 stars
comments

Good Punk Tab

spudnik16@juno.com
"The Good Punk"-The Party of Helicopters [RIP "1995-Ouch"]
Band from Kent, Ohio. They crashed but I want to get the tabs out there because the
POH is fucking amazing. Vocals, guitar, drums and bass. This is another Jamie Stillman
masterpiece. Please if anyone has anymore songs by the POH figured out or somewhat
figured out, please e-mail me. Gotta spread the love that is the POH.

Verse:

e|-------------------------------------------------|
B|-------------------------------------------------|
G|-------------0h2p0-------------------------------|
D|-------0h2h3---------------2-2-----------0h2-----|
A|-0h2h3-----------------------------0h2h3---------|
E|---------------------3-1-1-----1-3---------------|Repeat Seven Times.

Chorus:

e|--------------------------------------|
B|--------------------------------------|
G|-----------------2-0-----7s9-7-5p4----|
D|-2---------0h2h3-------------------5--|
A|-0-5-0h2h3----------------------------|
E|---3----------------------------------|Repeat Four Times.

then the verse and chorus again.

e|-------------------||----------------------||---------------|
B|-------------------||------------Repeat----||---------------|
G|------Bass plays---||------------this a----||---------------|
D|-2-----------------||----7-5-7--few times--||---------------|
A|-0-----------------||--7-------------------||--3------------|
E|-------------------||----------------------||--1-pickscrape-|

then play the chorus a 3 1/2 times then this part.(listen for the 1/2 part. Not to tricky)
[ Tab from: http://www.guitartabs.cc/tabs/t/the_party_of_helicopters/good_punk_tab.html ]
e|---------------------------------------------------|
B|---------------------------------------------------|
G|---------------------2-----------------------------|
D|-2---2-------0h2h3p0-0----------palm muted---------|
A|-0-5-0-0h2h3-------------7/----555555555555--------|
E|---3---------------------5/----333333333333--------|
     
e|---0-------------------------------------|-------------|
B|---3---3-0---------------------3-0-------|--this part--|
G|---2-------2-0---2-0-------0-2-----2-0---|--four times-|
D|-2-2-----------2-----2-0-2-------------2-|-----2-0-----|
A|-0---------------------------------------|--55---------|
E|-----------------------------------------|--33---------|Repeat three times.
         					  
        
e|---0-------------------------------------|-------------------------------------|
B|---3---3-0---------------------3-0-------|-------------------------------------|
G|---2-------2-0---2-0-------0-2-----2-0---|----------------0-------0------------|
D|-2-2-----------2-----2-0-2-------------2-|-----2-0----2-0---2-0-2---2-0-2-0-22-|
A|-0---------------------------------------|--55-----55--------------------------|
E|-----------------------------------------|--33-----33--------------------------|
                                                            Repeat this twice
Then Play this the last time thru.

e|---0-----------------------------------------------------------------------------|
B|---3--3-0---------------------3-0-----3-0-----3-0-----3-0------33333333333-------|
G|---2------2-0---2-0-------0-2-----2-0-----2-0-----2-0-----2-0--22222222222-------|
D|-2-2----------2-----2-0-2------------------------------------------bend----------|
A|-0-----------------------------------------------------------------down----------|
E|---------------------------------------------------------------------------------|

Ending:

e|--------------------------------------------------------------------------|
B|--------------------------------------------------------------------------|
G|--------------------------------------------------------------------------|
D|-2-2-5-2-2-5-2-2-5-5s777s55---------4-4-4-4---------4-7-5-4---------------|
A|-0-0-3-0-0-3-0-0-3-3s555s33-5-5-5-5-2-2-2-2-5-5-5-5-2-5-3-2---------------|
E|----------------------------3-3-3-3---------3-3-3-3-----------------------|
  Repeat till end.(Fucking go crazy at this part. You played the rest right?)
Comments