The Paddingtons - Sorry Chords & Tabs

 

Sorry Chords & Tabs

The Paddingtons Chords & Tabs

Version: 2 Type: Tab

Sorry Tab

There's one other tab for this which i wasn't happy with so i thought i'd put on the 
version.

Intro:

e|--------------------------------------|
B|--------------------------------------|
G|-----14--------11---------------------|
D|-12-------12--------------------------|
A|--------------------------------------|
E|--------------------------------------|


e|-----------------------------------------------------|
B|-----------------------------------------------------|
G|-----11---14---11-------11---14---11-----------------|
D|-12-------------------12--------------12-------------|
A|-----------------------------------------------------|
E|-----------------------------------------------------|

Verse:

Play this section with fast down stroke strumming.

e|-------------------------|
B|-------------------------|
G|-------------12----------|
D|-12----------12----------|
A|-12-(x16)----10-(x16)----|
E|-10----------------------|
[ Tab from: http://www.guitartabs.cc/tabs/t/the_paddingtons/sorry_tab_ver_2.html ]
For the first verse play this part through 8 times, however on the last time end on this:

e|-------------------------|
B|-------------------------|
G|-------------14----------|
D|-12----------14-(x16)----|
A|-12-(x16)----12----------|
E|-10----------------------|

Bridge:

The bridge that is played by just the lead guitar goes like this:

e|-10-x-10-10-10---7-x-7-7-7---3-x-3-3-3---10-x-10-10-10--------|
B|-10-x-10-10-10---7-x-7-7-7---3-x-3-3-3---10-x-10-10-10--------|
G|-11-x-11-11-11---7-x-7-7-7---4-x-4-4-4---11-x-11-11-11--------|
D|-12-x-12-12-12---9-x-9-9-9---5-x-5-5-5---12-x-12-12-12--------|
A|-12-x-12-12-12---9-x-9-9-9---5-x-5-5-5---12-x-12-12-12--------|
E|-10-x-10-10-10---7-x-7-7-7---3-x-3-3-3---10-x-10-10-10--------|

Pre-Verse thing when Tom starts singing "Is it Over":

e|----------------------------|
B|----------------------------|
G|--7-----------------7-------|
D|--7-----9-----5-----7-------|
A|--5-----9-----5-----5-------|
E|--------7-----3-------------|

If you listen to the song i'm pretty sure you'll be able to work out the rhythm, so 
very much and enjoy The Paddingtons!