The Paddingtons - Some Old Girl Chords & Tabs

 

Some Old Girl Chords & Tabs

The Paddingtons Chords & Tabs

Version: 1 Type: Tab

Some Old Girl Tab

Hey everyone, i'm back for another Paddingtons song, this is quite simple but still a
veeerrrryyy good song.

The intro involves putting your guitar right up to the amp to get feedback, whilst the
drums start, what follows is basically repeated throughtout the whole song. 

Guitar 1

E||-7-(x12)--5-(x4)--7-(x12)--5-(x4)-------|
B||-7--------7-------7--------7------------|
G||----------------------------------------|
D||----------------------------------------|
A||----------------------------------------|
E||----------------------------------------|
[ Tab from: http://www.guitartabs.cc/tabs/t/the_paddingtons/some_old_girl_tab.html ]
Guitar 2

E||----------------------------------------|
B||----------------------------------------|
G||----------------------------------------|
D||-9--------7--------9-------7------------|
A||-9-(x64)--7-(x16)--9-(x64)-7-(x16)------|
E||-7--------5--------7-------5------------|

Small guitar riff when just before Tom sings "Your some old girl":

E||-12-10-9---|
B||-----------|
G||-----------|
D||-----------|
A||-----------|
E||-----------|

Hope that scratches your itch, and i'll be back with some more Paddingtons, i think
it'll be "Molly's Lips" next time