The Paddingtons - Panic Attack Chords & Tabs

 

Panic Attack Chords & Tabs

The Paddingtons Chords & Tabs

Version: 2 Type: Tab 0 ratings
1 star 2 stars 3 stars 4 stars 5 stars
comments

Panic Attack Tab

Artist: The Paddingtons
Title: Panic Attack
Album: '50 To The '
Tabbed By: Uriel  M.M   (mexico city)
[][][][][][][][][][][][][][][][][][][][][][][][][][][][][][][][][][[][]

Guitar 1
Intro	                                         x 2          		 
E||-------------------------------------------------|
B||-------------------------------------------------|
G||-------------------------------------------------|
D||-------------------------------------------------|
A||----7/9--9-9-9-9-7--7-7-7--7/9--9-9-9-9-7--9--7--|
E||-------------------------------------------------|  
	  	                                            x 2        
E||---------------------------------|--------------------------|
B||--14-----14-14-14-14-14-14-14-14-|-14-14-14-14-14-14-14-14--|
G||--14-----13-13-13-13-13-13-13-13-|-13-13-13-13-13-13-13-13--|
D||--14-----11-11-11-11-11-11-11-11-|-14-14-14-14-14-14-14-14--|
A||---------------------------------|--------------------------|
E||---------------------------------|--------------------------|

Verso	                                                    x 4          
E||---------------------------------|--------------------------|
B||---------14-14-14-14-14-14-14-14-|-14-14-14-14-14-14-14-14--|
G||--14-----13-13-13-13-13-13-13-13-|-13-13-13-13-13-13-13-13--|
D||--14-----11-11-11-11-11-11-11-11-|-14-14-14-14-14-14-14-14--|
A||---------------------------------|--------------------------|
E||---------------------------------|--------------------------|

E||-------------------12------------------|
B||--------------------X-------14--14-14--|
G||--14--14--14-14-14-14-14-14--X---X--X--|
D||--14--14--14-14-14-14-14-14-14--14-14--|
A||---------------------------------------|
E||---------------------------------------|\
                                             (x2)                           
E||-------------------12-12-12------------|/
B||--14--14--14-14-14-14-14-14-14--14-14--|
G||--13--13--13-13-13-13-13-13-13--13-13--|
D||--11--11--11-11-11-11-11-11-11--11-11--|
A||---------------------------------------|
E||---------------------------------------| 

Chorus
E||-------------------------------|-----------------------------------|
B||--14-14--12-12--14--14--12--12-|-10-10-10--12--12--10--10--12--12--|
G||--13-13--13-13--13--13--13--13-|-11-11-11--11--11--11--11--11--11--|
D||--14-14--14-14--14--14--14--14-|-12-12-12--12--12--12--12--12--12--|
A||-------------------------------|-----------------------------------|
E||-------------------------------|-----------------------------------| 
	
E||-------------------------------|-------------------------------------|
B||--14-14--12-12--14--14--12--12-|-10-10-10--12--12---12--14--12--0----|
G||--13-13--13-13--13--13--13--13-|-11-11-11--11--11---13--13--13--0-14-|
D||--14-14--14-14--14--14--14--14-|-12-12-12--12--12---14--14--14--0-14-|
A||-------------------------------|-------------------------------------|
E||-------------------------------|-------------------------------------| 

Verse	                                                    x 2
E||---------------------------------|--------------------------|
B||---------14-14-14-14-14-14-14-14-|-14-14-14-14-14-14-14-14--|
G||--14-----13-13-13-13-13-13-13-13-|-13-13-13-13-13-13-13-13--|
D||--14-----11-11-11-11-11-11-11-11-|-14-14-14-14-14-14-14-14--|
A||---------------------------------|--------------------------|
E||---------------------------------|--------------------------|
                                                            x 2
E||---------------------------------|----x8-|----x8-|----------|
B||---------------------------------|-14----|-14----|----------|
G||--14--14--14--14--14--14--14--14-|-13----|-13----|----------|
D||--14--14--14--14--14--14--14--14-|-11----|-14----|----------|
A||---------------------------------|-------|-------|----------|
E||---------------------------------|-------|-------|----------|  

E||-------------------12------------------|
B||--------------------X-------14--14-14--|
G||--14--14--14-14-14-14-14-14--X---X--X--|
D||--14--14--14-14-14-14-14-14-14--14-14--|
A||---------------------------------------|
E||---------------------------------------|\
                                             (x2)
E||-------------------12-12-12------------|/
B||--14--14--14-14-14-14-14-14-14--14-14--|
G||--13--13--13-13-13-13-13-13-13--13-13--|
D||--11--11--11-11-11-11-11-11-11--11-11--|
A||---------------------------------------|
E||---------------------------------------| 

Again the Chorus.

Solo
E||-----------------------------------------------------|
B||----------------------------------17-17--17--15--14--|
G||--14-----14-----------14--13--13--16-16--16--16--14--|
D||--14--14----14-----14-----14--14---------------------|
A||---------------12------------------------------------|
E||-----------------------------------------------------|  

E||-----------------------------------------------------|
B||--14---14--17-17--17-17--14/15-15--15--15------------|
G||--14---14--16-16--16-16--14-14-14--14--14------------|
D||-----------------------------------------------------|
A||-----------------------------------------------------|
E||-----------------------------------------------------|  

Again the Chorus.

Verse
E||-------------------12------------------|
B||--------------------X-------14--14-14--|
G||--14--14--14-14-14-14-14-14--X---X--X--|
D||--14--14--14-14-14-14-14-14-14--14-14--|
A||---------------------------------------|
E||---------------------------------------|\
                                             (x2)
E||-------------------12-12-12------------|/
B||--14--14--14-14-14-14-14-14-14--14-14--|
G||--13--13--13-13-13-13-13-13-13--13-13--|
D||--11--11--11-11-11-11-11-11-11--11-11--|
A||---------------------------------------|
E||---------------------------------------| 

Again the Chorus.
Again the Intro.
                                                             x 4
E||---------------------------------|----x8-|----x8-|-----------|
B||---------------------------------|-14----|-14----|-----------|
G||--14--14--14--14--14--14--14--14-|-13----|-13----|-----------|
D||--14--14--14--14--14--14--14--14-|-11----|-14----|-----------|
A||---------------------------------|-------|-------|-----------|
E||---------------------------------|-------|-------|-----------|

In ends up. Guitar 1
E||-------|------x8-|------x8-|--------|------x8-|------x8-|-------|
B||-------|---14----|---14----|--------|---14----|---12----|-------|
G||--14---|---13----|---13----|---14---|---13----|---13----|---14--|
D||--14---|---11----|---14----|---14---|---11----|---14----|---14--|
A||-------|---------|---------|--------|---------|---------|-------|
E||-------|---------|---------|--------|---------|---------|-------|
[ Tab from: http://www.guitartabs.cc/tabs/t/the_paddingtons/panic_attack_tab_ver_2.html ]
Guitar 2

Intro	                    	                 x 2
E||-------------------------------------------------|
B||-------------------------------------------------|
G||-------------------------------------------------|
D||-------------------------------------------------|
A||-------------------------------------------------|
E||----5--5-5-5-5-5/9--9-9-9--5---------------5--5--|
	                                         x 2
E||--5---------------------|------------------------|
B||--5---------------------|------------------------|
G||--6-----6-6-6-6-6-6-6-6-|-9-9-9-9-9-9-9-9--------|
D||--7-----6-6-6-6-6-6-6-6-|-9-9-9-9-9-9-9-9--------|
A||--7-----4-4-4-4-4-4-4-4-|-7-7-7-7-7-7-7-7--------|
E||--5---------------------|------------------------|

Verse	                                         x 4
E||------------------------|------------------------|
B||------------------------|------------------------|
G||--6-----6-6-6-6-6-6-6-6-|-9-9-9-9-9-9-9-9--------|
D||--7-----6-6-6-6-6-6-6-6-|-9-9-9-9-9-9-9-9--------|
A||--7-----4-4-4-4-4-4-4-4-|-7-7-7-7-7-7-7-7--------|
E||--5---------------------|------------------------|
                                                                     x 2
E||---------------------------------|----------------|-----------------|
B||---------------------------------|----------------|-----------------|
G||--6--6-6-6-6-6-6-6-6-6-6-6-6-6-6-|-6--6-6-6-6-6-6-|-9--9-9-9-9-9-9--|
D||--7--7-7-7-7-7-7-7-7-7-7-7-7-7-7-|-6--6-6-6-6-6-6-|-9--9-9-9-9-9-9--|
A||--7--7-7-7-7-7-7-7-7-7-7-7-7-7-7-|-4--4-4-4-4-4-4-|-7--7-7-7-7-7-7--|
E||--5--5-5-5-5-5-5-5-5-5-5-5-5-5-5-|----------------|-----------------|

Chorus	                      	                                         
E||----------------------------------|----------------------------------|
B||----------------------------------|----------------------------------|
G||--9-9-9-9-9-9-9-9-9-9-9-9-9-9-9-9-|-7-7-7-7-7-7-7-7-7-7-7-7-7-7-7-7--|
D||--9-9-9-9-9-9-9-9-9-9-9-9-9-9-9-9-|-7-7-7-7-7-7-7-7-7-7-7-7-7-7-7-7--|
A||--7-7-7-7-7-7-7-7-7-7-7-7-7-7-7-7-|-5-5-5-5-5-5-5-5-5-5-5-5-5-5-5-5--|
E||----------------------------------|----------------------------------|

E||----------------------------------|----------------------------------|
B||----------------------------------|----------------------------------|
G||--9-9-9-9-9-9-9-9-9-9-9-9-9-9-9-9-|-7-7-7-7-7-7-7-7--9--9--9--0--6---|
D||--9-9-9-9-9-9-9-9-9-9-9-9-9-9-9-9-|-7-7-7-7-7-7-7-7--9--9--9--0--7---|
A||--7-7-7-7-7-7-7-7-7-7-7-7-7-7-7-7-|-5-5-5-5-5-5-5-5--7--7--7--0--7---|
E||----------------------------------|------------------------------5---|

Verse	  	                                           x 2
E||----------------------|-----------------|------------------|
B||----------------------|-----------------|------------------|
G||--6-------------------|-6-6-6-6-6-6-6-6-|-9-9-9-9-9-9-9-9--|
D||--7---7-7-7-7-7-7-7-7-|-6-6-6-6-6-6-6-6-|-9-9-9-9-9-9-9-9--|
A||--7---7-7-7-7-7-7-7-7-|-4-4-4-4-4-4-4-4-|-7-7-7-7-7-7-7-7--|
E||--5-------------------|-----------------|------------------|
	                                                   x 2
E||-------------------------|------|------|-------------------|
B||-------------------------|---x8-|---x8-|-------------------|
G||--6--6--6--6--6--6--6--6-|-6----|-9----|-------------------|
D||--7--7--7--7--7--7--7--7-|-6----|-9----|-------------------|
A||--7--7--7--7--7--7--7--7-|-4----|-7----|-------------------|
E||--5--5--5--5--5--5--5--5-|------|------|-------------------|
	                                                            x 2
E||---------------------------------|----------------|-----------------|
B||---------------------------------|----------------|-----------------|
G||--6--6-6-6-6-6-6-6-6-6-6-6-6-6-6-|-6--6-6-6-6-6-6-|-9--9-9-9-9-9-9--|
D||--7--7-7-7-7-7-7-7-7-7-7-7-7-7-7-|-6--6-6-6-6-6-6-|-9--9-9-9-9-9-9--|
A||--7--7-7-7-7-7-7-7-7-7-7-7-7-7-7-|-4--4-4-4-4-4-4-|-7--7-7-7-7-7-7--|
E||--5--5-5-5-5-5-5-5-5-5-5-5-5-5-5-|----------------|-----------------|

Chorus	                      	                                         
E||----------------------------------|----------------------------------|
B||----------------------------------|----------------------------------|
G||--9-9-9-9-9-9-9-9-9-9-9-9-9-9-9-9-|-7-7-7-7-7-7-7-7-7-7-7-7-7-7-7-7--|
D||--9-9-9-9-9-9-9-9-9-9-9-9-9-9-9-9-|-7-7-7-7-7-7-7-7-7-7-7-7-7-7-7-7--|
A||--7-7-7-7-7-7-7-7-7-7-7-7-7-7-7-7-|-5-5-5-5-5-5-5-5-5-5-5-5-5-5-5-5--|
E||----------------------------------|----------------------------------|

E||----------------------------------|----------------------------------|
B||----------------------------------|----------------------------------|
G||--9-9-9-9-9-9-9-9-9-9-9-9-9-9-9-9-|-7-7-7-7-7-7-7-7--9--9--9--0--6---|
D||--9-9-9-9-9-9-9-9-9-9-9-9-9-9-9-9-|-7-7-7-7-7-7-7-7--9--9--9--0--7---|
A||--7-7-7-7-7-7-7-7-7-7-7-7-7-7-7-7-|-5-5-5-5-5-5-5-5--7--7--7--0--7---|
E||----------------------------------|------------------------------5---|

Solo
E||--------------------------------|
B||--------------------------------|
G||--6-----6----9----6-----6----9--|
D||--7-----6----9----7-----6----9--|
A||--7-----4----7----7-----4----7--|
E||--5---------------5-------------|

Again the Chorus.
                                                                    x 2
E||---------------------------------|----------------|-----------------|
B||---------------------------------|----------------|-----------------|
G||--6--6-6-6-6-6-6-6-6-6-6-6-6-6-6-|-6--6-6-6-6-6-6-|-9--9-9-9-9-9-9--|
D||--7--7-7-7-7-7-7-7-7-7-7-7-7-7-7-|-6--6-6-6-6-6-6-|-9--9-9-9-9-9-9--|
A||--7--7-7-7-7-7-7-7-7-7-7-7-7-7-7-|-4--4-4-4-4-4-4-|-7--7-7-7-7-7-7--|
E||--5--5-5-5-5-5-5-5-5-5-5-5-5-5-5-|----------------|-----------------|

Again the Chorus.
Again the Intro.

Verse                                                               x 4    
E||---------------------------------|----------------|-----------------|
B||---------------------------------|----------------|-----------------|
G||--6--6-6-6-6-6-6-6-6-6-6-6-6-6-6-|-6--6-6-6-6-6-6-|-9--9-9-9-9-9-9--|
D||--7--7-7-7-7-7-7-7-7-7-7-7-7-7-7-|-6--6-6-6-6-6-6-|-9--9-9-9-9-9-9--|
A||--7--7-7-7-7-7-7-7-7-7-7-7-7-7-7-|-4--4-4-4-4-4-4-|-7--7-7-7-7-7-7--|
E||--5--5-5-5-5-5-5-5-5-5-5-5-5-5-5-|----------------|-----------------|

It ends up. Guitar 2.
E||------|--------|--------|-------|--------|--------|-----------------|
B||------|-----x8-|-----x8-|-------|-----x8-|-----x8-|-----------------|
G||--6---|---6----|---9----|---6---|---6----|---5----|---6-------------|
D||--7---|---6----|---9----|---7---|---6----|---4----|---7-------------|
A||--7---|---4----|---7----|---7---|---4----|---6----|---7-------------|
E||--5---|--------|--------|---5---|--------|--------|---5-------------|

Any comment or suggestion please write to
Multimera@hotmail.com
Comments