The Paddingtons - Panic Attack Chords & Tabs

 

Panic Attack Chords & Tabs

The Paddingtons Chords & Tabs

Version: 1 Type: Tab 0 ratings
1 star 2 stars 3 stars 4 stars 5 stars
comments

Panic Attack Tab

----------------------------------------------------------------------------
PANIC ATTACK The Paddingtons
----------------------------------------------------------------------------

Tabbed by: dave_mc_89
email: d_a_v_erules@yahoo.co.uk

This is a great new under-the-radar band from HUll, of all places. You may have heard 
song becuase it got to about 13 in the charts the other week, but if you haven't then i 
you to because its brilliant!

tuning: standard

Intro Part 1
   e|-------------------------------------------------|
   b|-------------------------------------------------|
   g|-------------------------------------------------|
G1 d|-------------------------------------------------|
   a|-------------9-9-9-7-9-7-9-9-9-7-9-7-9-9-9-9-9-9-|
   e|-5-5-5-/9-9-9------------------------------------|
[ Tab from: http://www.guitartabs.cc/tabs/t/the_paddingtons/panic_attack_tab.html ]
   e|-------------------------------------------------|
   b|-------------------------------------------------|
   g|-------------------------------------------------|
G2 d|-------------------------------------------------|
   a|-------------------------------------9-9-9-7-9-7-|
   e|------------------------5-5-5-/9-9-9-------------|

Intro Part 2

   e|--------------------------------------------------------------|
   B|--------------------------------------------------------------|
   G|-14--------------------------------------------------------14-|
G1 D|-14--------11-11-11-11-11-11-11-11-14-14-14-14-14-14-14-14-14-|
   A|-12--------11-11-11-11-11-11-11-11-14-14-14-14-14-14-14-14-12-|
   E|-----------9- 9- 9- 9- 9- 9- 9- 9 -12-12-12-12-12-12-12-12----|

   e|--------------------------------------------------------------|
   B|--------------------------------------------------------------|
   G|--------------------------------------------------------------|
G2 D|-7---------11-11-11-11-11-11-11-11-9-9-9-9-9-9-9-9--7---------|
   A|-7---------11-11-11-11-11-11-11-11-9-9-9-9-9-9-9-9--7---------|
   E|-5---------9- 9- 9- 9- 9- 9- 9- 9- 7-7-7-7-7-7-7-7--5---------|

Verse - repeat Intro Part 2 throughout

You need to listen to the song for the lyrics becuase i don't really know them yet, but 
the guitar parts at least. e-mail me with any queries.
Comments