The Others - This Is For The Poor Chords & Tabs

 

This Is For The Poor Chords & Tabs

The Others Chords & Tabs

Version: 1 Type: Tab 0 ratings
1 star 2 stars 3 stars 4 stars 5 stars
comments

This Is For The Poor Tab

ace band......this song is an anthem

this is for the poor..

e--------------------------------|
b--------------------------------|
g--------------------------------|
d--------------------------------|
a---2---2---2---2----0--0--0-----|
e-0---0---0---0----0--0--0-------|
(on a guitar this is the closeset your going to get to the bass intro without drop d tuning)

E--------------------|
b------8-------7-----|
g------------9---9---|
d---9------9---------|
a-7------7-----------|
e--------------------|
[ Tab from: http://www.guitartabs.cc/tabs/t/the_others/this_is_for_the_poor_tab.html ]
e-------12>---------19>-------|
b--12>-------------------19>--|
g-----------------------------|
d-----------------------------|
a-----------------------------|
e-----------------------------| natural harmonics.

chorus
e-7-7-7-7-7---10-10-10-10-10----|
b-8-8-8-8-8---10-10-10-10-10----|
g-------------------------------|
d-------------------------------|
a-------------------------------|
e-------------------------------|


thats the whole song!!!

tabbed by stu.f   www.myspace.com/stu_f   boysintheband.co.uk
Comments