The Originals - Why When Love Is Gone Chords & Tabs

 

Why When Love Is Gone Chords & Tabs

The Originals Chords & Tabs

Version: 1 Type: Bass Tab 0 ratings
1 star 2 stars 3 stars 4 stars 5 stars
comments

Why When Love Is Gone Bass Tab

   
#----------------------------------PLEASE NOTE---------------------------------#
#This file is the author's own work and represents their interpretation of the #
#song. You may only use this file for private study, scholarship, or research. #
#------------------------------------------------------------------------------#

Date: 27.11.2005 17:47
From: Purplefly@gmx.net(Julian Tillmann)


This is supposed to be the first Bass/Guitar Tab of old Motown and other Soul songs, feel free 
to contribute some yourself.

 The Originals - Why when your love is gone 
[ from the Album GREEN GROW THE LILACS/BABY, I'M FOR REAL (Soul 716; '69)]
==========================

Listen to the Song to get the rythm right, the "+" stands for repeating the tone -> listen how often


BASS:
========
Intro/Chorus:
[ Tab from: http://www.guitartabs.cc/tabs/t/the_originals/why_when_love_is_gone_btab.html ]
G:|---------------------------1-3----3---------------------|
D:|-------------1---3---3---4-------------1--------4-1-----|
A:|--4-1---1-4---------------------1---1-----4---------4---|
E:|------4------------1---1---------------------2----------|

Verse:
	     2x
G:|------------|-----------------------------------------|
D:|------------|-----------------------------------------|
A:|---4+++-----|------------------6-4--------------------|
E:|---------5--|--2+--4-6+--4+-6+------2+--4-6+--4+-6+---|


Guitar:
========
Intro/Chorus: 

G:|--------------------------------------------------------|
D:|--------------------------------------------------------|
G:|---------------------------1-3----3---------------------|
D:|-------------1---3---3---4-------------1--------4-1-----|
A:|--4-1---1-4---------------------1---1-----4---------4---|
E:|------4------------1---1---------------------2----------|

just like the bassline

the rest in chords

Verse: 
C# - ? - C# - A#m 2x 
F# - G# - A#m - G# - A#m 2x 

Chorus: 
C# - Fm - A#m - F#
Comments