The Organ - There Is Nothing I Can Do Chords & Tabs

 

There Is Nothing I Can Do Chords & Tabs

The Organ Chords & Tabs

Version: 1 Type: Tab 0 ratings
1 star 2 stars 3 stars 4 stars 5 stars
comments

There Is Nothing I Can Do Tab

---------------------------------------------------------------------------
		   The Organ - There Is Nothing I Can Do
---------------------------------------------------------------------------

Tabbed by:jen

Email:jen2805@hotmail.com

Band: The Organ
Album: Grab That Gun
Song: There Is Nothing I Can Do

Tuning: Standard


Starting Bass Riff (Plays under the organ part at the beginning and guitar riff 1): 

e|-----------------------------------------------------------------------|
B|-----------------------------------------------------------------------|
G|-----------------------------------------------------------------------|
D|-----------------------------------------------------------------------|x8
A|----7-7-7-7-7-7-7/5-5-5-5-5-5-5-5-2-2-2-2-2-2-2-2----------------------|
E|-------------------------------------------------3-3-3-3-3-3-3-3-------|

Organ transcribed for guitar:

e|-----------------------------------------------------------------------|
B|-----------------------------------------------------------------------|
G|---4---7---------------------------------------------------------------|
D|------------7-5--------------------------------------------------------|x2
A|-----------------------------------------------------------------------|
E|-----------------------------------------------------------------------|

Guitar Riff 1:

e|---2--5----------------------------------------------------------------|
B|---2--5----5--3----------------------------------------------------------|
G|-----------4--2----------------------------------------------------------|
D|-----------------------------------------------------------------------|x2
A|-----------------------------------------------------------------------|
E|-----------------------------------------------------------------------|



Guitar Riff 2:
[ Tab from: http://www.guitartabs.cc/tabs/t/the_organ/there_is_nothing_i_can_do_tab.html ]
e|--14--10--12-10--12-10-----17-17-14-10--12-10--12-10---17--------------|
B|--------10-----10-----10--------------10-----10-----10-----------------|
G|-----------------------------------------------------------------------|
D|-----------------------------------------------------------------------|x2
A|-----------------------------------------------------------------------|
E|-----------------------------------------------------------------------|


Bridge:

     v ^ V ^   v ^ v ^   v ^ v ^   v ^ v ^
e|-----------------------------------------------------------------------|
B|-----------------------------------------------------------------------|
G|---9-9-9-9---7-7-7-7---4-4-4-4-----------------------------------------|
D|---9-9-9-9---7-7-7-7---4-4-4-4---5-5-5-5-------------------------------|x2
A|---7-7-7-7---5-5-5-5---2-2-2-2---5-5-5-5-------------------------------|
E|---------------------------------3-3-3-3-------------------------------|



Guitar Riff 3:

e|------------10---------------10--------------10------------------------|
B|---8p7-7-7-----7-7-h-8p7-7-7----7-7-h-8p7-7-7----7-7h8-----------------|
G|-----------------------------------------------------------------------|
D|-----------------------------------------------------------------------|x8
A|-----------------------------------------------------------------------|
E|-----------------------------------------------------------------------|



Play Guitar Riff 4 (Similar to Riff 2 thought slightly different towards the end):


e|--14--10--12-10--12-10---17-17-14--------------------------------------|
B|--------10-----10-----10-----------------------------------------------|
G|-----------------------------------------------------------------------|
D|-----------------------------------------------------------------------|x2
A|-----------------------------------------------------------------------|
E|-----------------------------------------------------------------------|

e|--10-10----14--10-----10---17-17-14--10--12-10--12-10--17--------------|
B|-------10--------10-7---10-------------10-----10-----10----------------|
G|-----------------------------------------------------------------------|x1
D|-----------------------------------------------------------------------|
A|-----------------------------------------------------------------------|
E|-----------------------------------------------------------------------|

End on downstroking Em once

|
| v = Downstroke
| ^ = Upstroke
| h = hammer on
| 
============================================================================
Comments