The Offcuts - Break It Chords & Tabs

 

Break It Chords & Tabs

The Offcuts Chords & Tabs

Version: 1 Type: Tab 0 ratings
1 star 2 stars 3 stars 4 stars 5 stars
comments

Break It Tab

   
-------------------------------------------------------------------------------
		 BREAK IT (DOWN JAMES BROWN) - The Offcuts
-------------------------------------------------------------------------------
Tabbed by: Matt Arnott
Email:iliveatanarnottsfactory@hotmail.com

this tab has been hard to find so i thought i would write one to help out.



Tuning: Drop D

Rythm (All verses)
    D                   G      A
E-|-10-10----10-10------3-3----5-5----------------|
B-|-10-10----10-10------3-3----5-5----------------|
G-|-11-11----11-11------4-4----6-6----------------|
D-|-12-12----12-12------5-5----7-7----------------|
A-|-12-12----12-12------5-5----7-7----------------|
D-|-----------------------------------------------|
i play down-up strokes because it keeps me in time, but it sounds like up-down strokes

[ Tab from: http://www.guitartabs.cc/tabs/t/the_offcuts/break_it_tab.html ]
Lead (starts second Verse)
E-|-----------------------------------|
B-|-----------------------------------|
G-|-----------------------------------|
D-|------4----5-5-7-7-----------------|
A-|-5-5----5------------------------4-|
D-|--------------------5-5-5------7---|


Chorus
        D7                         D7
E-|---------------------------------|
B-|---------------------------------|
G-|-----5-5-55-5--------------------|
D-|-----4-4-44-4--------------------|
A-|-----5-5-55-5---0-3-0-3-0-3^-----|
D-|-----------------------------0---|



Bridge
    A5        G5       F#5      D5
E-|---------------------------------------|
B-|---------------------------------------|
G-|---------------------------------------|
D-|-77777777-55555555-44444444-00000000---|
A-|-77777777-55555555-44444444-00000000---|
D-|-77777777-55555555-44444444-00000000---|


| ^ bend

enjoy.

===============================================================================
Comments