The Number 12 Looks Like You - Texas Dolly Chords & Tabs

 

Texas Dolly Chords & Tabs

The Number 12 Looks Like You Chords & Tabs

Version: 1 Type: Tab 0 ratings
1 star 2 stars 3 stars 4 stars 5 stars
comments

Texas Dolly Tab

   
----------------------------------------------------------------------------
			     TEXAS DOLLY - The Number 12 Looks Like You
--------------------------------------------------------------------------
Tabbed by:Tomas
Email:skater_tomas@hotmail.com
The Number 12 Looks Like You just released there new cd "Nuclear. Sad. Nuclear." this
summer .My friend Roderick showed me out to play this. i decided to write it out since
i had not seen any #12 tabs out there, so here it is.this is my 2st tab.

Tuning:EADgbe
[ Tab from: http://www.guitartabs.cc/tabs/t/the_number_12_looks_like_you/texas_dolly_tab.html ]
starts at 2:01 into the song
GT1
e|-----11-13------13h11----11------------------------------------------------|
B|--13------------------13----13h12p11--9h11-12--9~~~------------------------|
G|---------------------------------------------------------------------------|
D|---------------------------------------------------------------------------|
A|---------------------------------------------------------------------------|
E|---------------------------------------------------------------------------|
GT1
e|--------------------------------------------------------------------------|
B|-9h11h12-9h11h12--------------------9h11h12-9h11h12-----------------------|
G|--------------------------------------------------------------------------|
D|--------------------------------------------------------------------------|
A|--------------------------------------------------------------------------|
E|--------------------------------------------------------------------------|
GT2
e|-------------------12h10p9-12h10p9-------------------12h10p9-12h10p9------|
B|--------------------------------------------------------------------------|
G|--------------------------------------------------------------------------|
D|--------------------------------------------------------------------------|
A|--------------------------------------------------------------------------|
E|--------------------------------------------------------------------------|
GT1
e|-------------------------------------13b-----------------------------------|
B|--9h11h12-9h11h12-9h11h12-9h11h12----13b-----------------------------------|
G|---------------------------------------------------------------------------|
D|---------------------------------------------------------------------------|
A|---------------------------------------------------------------------------|
E|---------------------------------------------------------------------------|
GT2
e|--12h10p9-12h10p9-12h10p9-12h10p9----12b----------------------------------|
B|-------------------------------------12b----------------------------------|
G|--------------------------------------------------------------------------|
D|--------------------------------------------------------------------------|
A|--------------------------------------------------------------------------|
E|--------------------------------------------------------------------------|


| /  slide up
| \  slide down
| h  hammer-on
| p  pull-off
| ~  vibrato
| +  harmonic
| x  Mute note
===========================================================================
Comments