The Number 12 Looks Like You - An Aptly Fictional Description Chords & Tabs

 

An Aptly Fictional Description Chords & Tabs

The Number 12 Looks Like You Chords & Tabs

Version: 1 Type: Tab

An Aptly Fictional Description Tab

   
Band: The Number 12 Looks Like You
Song: An Aptly Fictional Description
Tabber: Ballin1600@yahoo.com  (Kyle)

TUNING – STANDARD!!

E]------10----------------------------------------------------|
B]--7---10--5---3---5--------5--3----10-----------------------|
G]--6-------4---2-----7------2--2-------11--------------------|
D]----------------------7------------------11-----------------|
A]------------------------------------------------------------|
e]------------------------------------------------------------|  x2

__________________________________________________________________

2 times with pm; then 2 times without pm
E]-----------------------------------------------------------|
B]-----------------------------------------------------------|
G]-----------------------------------------------------------|
D]--------77--------77-------77-------77--------88--------88-|
A]---55-88-----55-88----55-88----55-88---77-1010---77-1010---|
e]-----------------------------------------------------------|

Cont’d
E]--------------------------------------------------------|
B]--------------------------------------------------------|
G]--------------------------------------------------------|
D]--------55-------55-------------------------------------|
A]--44-77----44-77----------------------------------------|
e]--------------------------------------------------------|

__________________________________________________________________
[ Tab from: http://www.guitartabs.cc/tabs/t/the_number_12_looks_like_you/an_aptly_fictional_description_tab.html ]
E]--------------------------------------------------------|
B]--------------------------------------------------------|
G]--------------------------------------------------------|
D]-----7------------7------------7------------------------|
A]------8-10-7-8-5----8-10-7-8-5---8-10-7-----------------|
e]--------------------------------------------------------|  x4

__________________________________________________________________

E]--------------------------------------------------------|
B]--------------------------------------------------------|
G]------------ -------------------------------------------|
D]-------8--------87------8------87--/12-10-8-10-8-7------|
A]--5555---55555-----5555---5555---------------------5----|
e]--------------------------------------------------------|  x2

__________________________________________________________________

E]--------------------------------------------------------|
B]--------------------------------------------------------|
G]--------------------------------------------------------|
D]--------77-------77--------88------55-------------------|
A]--55-88----55-88----77-1010---44-77---------------------|
e]--------------------------------------------------------| x2

E]---------------------------------------------------------------|
B]---10-------11-------8-----------------------------------------|
G]---------------------------------------------------------------|
D]---7--------8--------5-----------------------------------------|
A]---------------------------------------------------------------|
e]---------------------------------------------------------------|

^^^
Strumming patter is easy… you can figure it out

WELLLL that’s about all I got in me for one night..If anyone really wants the rest of 
song tabbed out you can e-mail or whatever at ballin1600@yahoo.com   #12 OWNS!!!!!

PS..Steve I know your gonna look this tab sooner or later so heyyy haha… dude we should 
this song and every other song by #12!!

PSS… Don’t feel shy to comment on this tab!  Thanks to everyone for looking at it!!