The Network - Transistors Gone Wild Chords & Tabs

 

Transistors Gone Wild Chords & Tabs

The Network Chords & Tabs

Version: 1 Type: Tab 1 rating
1 star 2 stars 3 stars 4 stars 5 stars
comments

Transistors Gone Wild Tab

Title:Transistors Gone Wild
Artist: The Network

This is from The Networks first album Money Money 2020

Tuning: Normal

               Intro

e-----------------------------------
B-----------------------------------
G-----------------------------------
D-----------------------------------
A--9-------5---4--------------------
E-----------------------------------

              Verse.
[ Tab from: http://www.guitartabs.cc/tabs/t/the_network/transistors_gone_wild_tab.html ]
e-------------------------------------------
B-------------------------------------------
G--------------9-9-9-9--7-7-7-7-7-7-7-7-----
D---7-7-7-7----9-9-9-9--7-7-7-7-7-7-7-7-----
A---7-7-7-7--- 7-7-7-7---5-5-5-5-5-5-5-5-----
E---5-5-5-5----------------------------------

             Chorus

"Give me matter give me..."
e-----------------------------------------
B-----------------------------------------
G-----------------------------------------
D--9-9-9-9-9-9-9-9---5-5-5-5-5-5-5-5------
A--9-9-9-9-9-9-9-9---5-5-5-5-5-5-5-5------
E--7-7-7-7-7-7-7-7---3-3-3-3-3-3-3-3------


 At the end they switch up into the intro again.

Any questions or comments email me at Alex_Molzahn@hotmail.com or 

Aim me at MunglayKing
Comments