The Network - Right Hand A Rama Chords & Tabs

 

Right Hand A Rama Chords & Tabs

The Network Chords & Tabs

Version: 1 Type: Tab 2 ratings
1 star 2 stars 3 stars 4 stars 5 stars
comments

Right Hand A Rama Tab

Title:Right Hand-A-Rama
Artist: The Network

This is from The Networks first album Money Money 2020

Tuning: Normal

                        Verse
e----------------------------------------
B----------------------------------------
G-------9--11--------11-11---------------
D--9-9--9--11--------11-11---7---9-------
A--9-9--7--9---------9--9----7---9-------
E--7-7-----------------------5---7-------


                        Chorus
[ Tab from: http://www.guitartabs.cc/tabs/t/the_network/right_hand_a_rama_tab.html ]
  "I dont know why..."
e-------------------------------------
B-------------------------------------
G-------------------------------------
D---7-7-7-7-------------4-4-4-4-------
A---7-7-7-7--let it ring4-4-4-4--let it ring
E---5-5-5-5-------------2-2-2-2--------

Its a little hard to hear the guitar in that part but i am 100% that it is right.

Thats about the whole song but if anyone has any questions or corrections 
feel free to email me at Alex_Molzahn@hotmail.com or Aim me at 
MunglayKing.
Comments