The National - Blank Slate Chords & Tabs

 

Blank Slate Chords & Tabs

The National Chords & Tabs

Version: 1 Type: Bass Tab 0 ratings
1 star 2 stars 3 stars 4 stars 5 stars
comments

Blank Slate Bass Tab

First tab. Not a 100% sure on timing (especially on chorus), but hey, here goes:

Intro/Verse:

G|----22----------------------------------------------------------|
D|------3h5-5p3h5-5p3h5-5p3---------------------------------------| x10
A|----------------------------------------------------------------|
E|----------------------------------------------------------------|

Chorus:

G|--------------------------------------|
D|-------------------3333-3-3-3-3-333---|
A|--3333-3-3-3-3-333--------------------|
E|--------------------------------------|

G|-------------------2222-2-2-2-2-222---|
D|--------------------------------------|
A|--3333-3-3-3-3-333--------------------|
E|--------------------------------------|

Verse:

G|----22----------------------------------------------------------|
D|------3h5-5p3h5-5p3h5-5p3---------------------------------------| x10
A|----------------------------------------------------------------|
E|----------------------------------------------------------------|

Chorus:
[ Tab from: http://www.guitartabs.cc/tabs/t/the_national/blank_slate_btab.html ]
G|--------------------------------------|
D|-------------------3333-3-3-3-3-333---|
A|--3333-3-3-3-3-333--------------------|
E|--------------------------------------|

G|-------------------2222-2-2-2-2-222---|
D|--------------------------------------|
A|--3333-3-3-3-3-333--------------------|
E|--------------------------------------|

Bridge: x2

G|--------------------------------------|
D|----------00002222--------------------| x2
A|--33333333----------------------------|
E|--------------------------------------|

G|--------------------------------------|
D|--------------------------------------| x2
A|--0000000022223333--------------------|
E|--------------------------------------|

Chorus: x2

G|--------------------------------------|
D|-------------------3333-3-3-3-3-333---|
A|--3333-3-3-3-3-333--------------------|
E|--------------------------------------|

G|-------------------2222-2-2-2-2-222---|
D|--------------------------------------|
A|--3333-3-3-3-3-333--------------------|
E|--------------------------------------|

End on:

G|-------------------|
D|-------------------|
A| ----3--------------|
E|-------------------|
Comments