The National - Abel Chords & Tabs

 

Abel Chords & Tabs

The National Chords & Tabs

Version: 1 Type: Tab 0 ratings
1 star 2 stars 3 stars 4 stars 5 stars
comments

Abel Tab

   
Another easier song but amazing still.
[ Tab from: http://www.guitartabs.cc/tabs/t/the_national/abel_tab.html ]
*Basic Progression
   C       C       F       G
-----------------------------------------|
-----------------------------------------|
---5-5-5-5-5-5-5-5-----------------------|
---5-5-5-5-5-5-5-5-3-3-3-3-5-5-5-5-------|
---3-3-3-3-3-3-3-3-3-3-3-3-5-5-5-5-------|
-------------------1-1-1-1-3-3-3-3-------|

*Neat Riff
e-0-3-5-0-3-5-0-3-5-0-3-5-0-1-3-0-1-3-0-1-3-0-1-3---|
B---------------------------------------------------|

*Bridge
-------------------------------------|
-------------------------------------|
-------------------5-5-5-5-----------|
---7-7-7-7-7-7-7-7-5-5-5-5-5-5-5-5---|
---7-7-7-7-7-7-7-7-3-3-3-3-5-5-5-5---|
---5-5-5-5-5-5-5-5---------3-3-3-3---|
Comments