The Music - Turn Out The Light Chords & Tabs

 

Turn Out The Light Chords & Tabs

The Music Chords & Tabs

Version: 1 Type: Tab 0 ratings
1 star 2 stars 3 stars 4 stars 5 stars
comments

Turn Out The Light Tab

   
Artist: The Music
Song: Turn out the light
Album: The Music
Author: Idris Hussain

this is certainly the best song on the album and has the best guitaring. the
intro and verse are definetly right and the chorus. the chord sequence may be
a little of but any corrections would be great. there aren't many tabs for the
music out there so i'll try to do as many as i can. enjoy!


Intro\verse
e|--------------------------------|
b|--------------------------------|
g|--------------------------------|		x4
d|---------13---------------9-----|
a|-----11----------------7--------|
d|-11----------------7------------|


verse 2  (I have tabbed all the verse fills)
e|-------------------------------------------|
b|-------------------------------------------|
g|-------------------------------------------|		
d|---------13-------------9-----9/11\9-------|
a|-----11--------------7---------------------|
d|-11---------------7------------------------|

e|-----------------------------------------|
b|-----------------------------------------|
g|-------------------------------------9---|		
d|---------13-------------9----9/11--------|
a|-----11--------------7-------------------|
d|-11---------------7----------------------|

e|---------------------------------------------|
b|---------------------------------------------|
g|--------------------------------------9h11---|		
d|---------13-------------9----9/11------------|
a|-----11--------------7-----------------------|
d|-11---------------7--------------------------|

e|--------------------------------------------------------------------------|
b|-------------------------------------------------------12-----------------|
g|--------------------------------------9---11--9—11b13------13r11--9-------|
d|---------13-------------9----9/11-----------------------------------------|
a|-----11--------------7----------------------------------------------------|
d|-11---------------7-------------------------------------------------------|

[ Tab from: http://www.guitartabs.cc/tabs/t/the_music/turn_out_the_light_tab.html ]
chorus (after he has finished the four fills he does this one twice kind of like a chorus)
e|----------------------------------------------------------------------|
b|----------------------------------------------------------------------|
g|------------------------------------9999------------------------------|	
d|---------13-------------9-----9/11--9999—9h11p9h11--------------------| x2
a|-----11--------------7------------------------------------------------|
d|-11---------------7---------------------------------------------------|
-
he then does the intro twice instead of four times (with no fills)
then he does vers2 again (the four fills)

interlude
e|------------------------------------------------------------|
b|------------------------------------------------------------|
g|------------------------------------------------------------|	x4
d|--14--13--11--9--9------6--7—7/9--9--9----------------------|
a|------------------------------------------------------------|
d|------------------------------------------------------------|


the goes into the intro twice again.

Then he does these two fills 
e|------------------------------------------------------------------------|
b|------------------------------------------------------------------------|
g|------------------------------------9—11—9—14—13—11—9-------------------|	
d|---------13-------------9---9/11----------------------9-----------------|
a|-----11--------------7--------------------------------------------------|
d|-11---------------7-----------------------------------------------------|

e|---------------------------------------------------------------------|
b|---------------------------------------------------------------------|
g|--------------------------------------9--11—9h11--9--11—13h14—16-----|	
d|---------13-------------9-----9/11-----------------------------------|
a|-----11--------------7-----------------------------------------------|
d|-11---------------7--------------------------------------------------|

then he goes back into verse 2

then he does the intro/main riff after this five time instead of four as it approaches the ending.

Then he starts up a chord sequence. (listen to the track to see how many times to do it)
e|-9-9-9----9--9--9---9---9--9---9--9--9----------------------------------|
b|-9-9-9---12-12-12---9---9--9---10-10-10---------------------------------|
g|-9-9-9----9--9--9---9---9--9---9--9--9----------------------------------|	
d|------------------------------------------------------------------------|
a|------------------------------------------------------------------------|
d|------------------------------------------------------------------------|

after the ending chord sequence there is a final riff
e|--------------------------------------|
b|-10p9--------12p9-----------5/7-------|
g|--------9-------------9---------------|		
d|-----------9-------------9------------|
a|--------------------------------------|
d|--------------------------------------|

that’s it. Any comments or corrections please e-mail me at idrisguitar@aol.com

note legend
b=bend
r=return bend
h=hammer on
p=pull off
Comments