The Music - Too High Chords & Tabs

 

Too High Chords & Tabs

The Music Chords & Tabs

Version: 1 Type: Tab 0 ratings
1 star 2 stars 3 stars 4 stars 5 stars
comments

Too High Tab

   
Track: Too High
Artist: The Music
Album: The Music
Tabbed by: Dave The Bookie (dave_the_bookie@hotmail.com)

Standard Tuning (high to low): E B G D A E

As like all my work, I go into great detail so you have to
Keep track of what’s going on to fully understand thisab.

Intro/Verse/Chorus Riff

Gtr.1

|---------------------------|
|--6------------------------|
|-----5--7----------5-------|
|-----------5---5h7---------|
|---------------------------|
|---------------------------|

Gtr.2 w/wah and delay

|-----------------|
|-----------------|
|--5--------5-----|
|-----7—5h7-------|
|-----------------|
|-----------------|

Gtr.2 solo

|-----------------------------15131213---------------------
|--15p13------------------------------1513-13h15~~~~-------
|--------14-12-12/14—14/16---------------------------------
|----------------------------------------------------------
|----------------------------------------------------------
|----------------------------------------------------------

-----13-----15bu-15bu-15bur13----13------------------------
--15----15--------------------15----15~~-13h15-13-121212---
-----------------------------------------------------------
-----------------------------------------------------------
-----------------------------------------------------------
-----------------------------------------------------------

-----------------17-------------15-----------13----12-----
--1213131515--15----151513~13-13--13131212-12--1212--12~~-
----------------------------------------------------------
----------------------------------------------------------
----------------------------------------------------------
----------------------------------------------------------

-----------------17-------------15-----------13----12-----
--121213/15~~-15----151513~13-13--13131212-12--1212—12\---
----------------------------------------------------------
----------------------------------------------------------
----------------------------------------------------------
----------------------------------------------------------

Gtr.1 middle variation of the 3rd verse

|--------8---6---5-5h6-6-----|
|--6-------------------------|
|-----5----------------------|
|----------------------------|
|----------------------------|
|----------------------------|

|--5---------------3---------|--5------5------5------0----|
|----6-------------3---------|----6------6------6----0----|
|------7-----------3---------|------7------7------7-------|
|--------7-------5-----------|------0------0------0-------|
|--------------5-------------|----------------------------|
|------------3---------------|----------------------------|
[ Tab from: http://www.guitartabs.cc/tabs/t/the_music/too_high_tab.html ]
On the third time round use a lot of
chorus effect and a little bit of reverb
to achieve that sweet sound.

Gtr.2 plays the solo again over the top of Gtr.1

Now the song begins to open up

Gtr.1
   
  Dm   Gm            
|--5----3---|
|--6----3---|
|--7----3---|
|--7----5---|
|--5----5---|
|-------3---|

Gtr.2

|----------------------------------|
|-----------------6-6-5-6p5--------|
|--5h7--5h7-7~~-7-----------7p5----|
|----------------------------------|
|----------------------------------|
|----------------------------------|

|---------------------------------------------------------|
|------------------------------------1515-13-15p13--------|
|--/12h14-1414-12h14-1414-12h14-1414--------------14p12---|
|---------------------------------------------------------|
|---------------------------------------------------------|
|---------------------------------------------------------|

|----------------------------------------|
|----------------------------------------|
|--/19191919171717171616161617171717-----|
|----------------------------------------|
|----------------------------------------|
|----------------------------------------|

|----------------------------------------|
|----------------------------------------|
|--1919191919191919191919191919191919----|
|----------------------------------------|
|----------------------------------------|
|----------------------------------------|

|----------------------------------------|
|--/2020202020202020202020202020202020---|
|----------------------------------------|
|----------------------------------------|
|----------------------------------------|
|----------------------------------------|

|----------------------------------------------------|
|----------------------------------------------------|
|--22222222222222222222220202020202020202020202021---|
|----------------------------------------------------|
|----------------------------------------------------|
|----------------------------------------------------|

Outro

Gtr.1

|--5-5-5-5-5-5-5-5-5-5-5-5-5-5-5-5-5-5-5--|
|--5-6-5-6-5-6-5-6-5-6-5-6-5-6-5-6-5-6-5--|
|--5-7-5-7-5-7-5-7-5-7-5-7-5-7-5-7-5-7-5--|
|--5-7-5-7-5-7-5-7-5-7-5-7-5-7-5-7-5-7-5--|
|--5-5-5-5-5-5-5-5-5-5-5-5-5-5-5-5-5-5-5--|
|-----------------------------------------|

Gtr.2

|--22-20-------------|--22-20-22-20-22-20-20-etc.----|
|--------22-20~22----|-------------------------------|
|--------------------|-------------------------------|
|--------------------|-------------------------------|
|--------------------|-------------------------------|
|--------------------|-------------------------------|

|--2222222222222222-20h22-----|
|-----------------------------|
|-----------------------------|
|-----------------------------|
|-----------------------------|
|-----------------------------|

What a great song to round off a classic album!
Comments