The Music - The Truth Is No Words Chords & Tabs

 

The Truth Is No Words Chords & Tabs

The Music Chords & Tabs

Version: 3 Type: Tab 0 ratings
1 star 2 stars 3 stars 4 stars 5 stars
comments

The Truth Is No Words Tab

This is the main Riff throughout the whole song
It can be played in two ways


This is the first 
e|---------------------------------------------------------------------------|
B|---------------------------------------------------------------------------|
G|---------------------------------------------------------------------------|
D|-----------------------------------7--9------------------------------------|
A|----------------5------------5h7/9-----------------------------------------|
E|---------5h7p5-----7-5-5h7-------------------------------------------------|
                                (Instead of 5h7/9 you could just do 5/7/9)
(Not sure about the pull off)
[ Tab from: http://www.guitartabs.cc/tabs/t/the_music/the_truth_is_no_words_tab_ver_3.html ]
This is the second
e|---------------------------------------------------------------------------|
B|---------------------------------------------------------------------------|
G|-----------------------------------5---------------------------------------|
D|-----------0------------0h2--3-4-5-----------------------------------------|
A|----0h2p0-----2-0 0h2------------------------------------------------------|
E|---------------------------------------------------------------------------|


And the chords are
e|------------------------|--------------------------------------------------|
B|------------------------|--------------------------------------------------|
G|------------------------|--------------------------------------------------|
D|------9-------7----4----|----12---14---------------------------------------| 
A|------9-------7----4----|----12---14---------------------------------------|
E|------7-------5----2----|----10---12---------------------------------------|


Theres also the lil solos,which u can figure.But i cant figure the twangy
bits at the end. Post them if u do.Tnx
Comments