The Music - The Truth Is No Words Chords & Tabs

 

The Truth Is No Words Chords & Tabs

The Music Chords & Tabs

Version: 2 Type: Tab 0 ratings
1 star 2 stars 3 stars 4 stars 5 stars
comments

The Truth Is No Words Tab

   
The Truth is No Words by The Music 

Probably the best song on their album. But it's a good play, takes a
toll on your fingers though. 

[----------------------------Guitar 1------------------------------]

Intro/Interlude

E|------------------------|
B|------------------------|
G|----------------------4-|
D|------------------4h7---|
A|-----5--------5h7-------|
E|-5h7---7--5h7-----------|

Verse 1 - Play twice

E|--------------------|
B|--------------------|
G|--------------------|
D|--------------------|
A|-----5--------------|
E|-5h7---7--5h7-5h7-7-|x 4
then
E|------------------|
B|------------------|
G|-----7-7------9-9-|
D|-----7-7------9-9-|
A|-----5-5------7-7-|
E|-5-5------7-7-----|

Verse 2 - Play twice

E|---------------------|
B|---------------------|
G|---------------------|
D|-----------4-------4-|
A|-------5h7-----5h7---|
E|-7-7-7-------7-------| x4
then
E|------------------|
B|------------------|
G|-----7-7------9-9-|
D|-----7-7------9-9-|
A|-----5-5------7-7-|
E|-5-5------7-7-----|

Pre-Chorus - Play twice

E|------------------------|
B|------------------------|
G|----------------------4-|
D|------------------4h7---|
A|-----5--------5h7-------|
E|-5h7---7--5h7-----------| x4
then
E|------------------|
B|------------------|
G|-----7-7------9-9-|
D|-----7-7------9-9-|
A|-----5-5------7-7-|
E|-5-5------7-7-----| 

Chorus

E|-----------------|
B|-----------------|
G|-----------------|
D|-7/9-9--7-7--4-4-|
A|-7/9-9--7-7--4-4-|
E|-5/7-7--5-5--2-2-| x3
[ Tab from: http://www.guitartabs.cc/tabs/t/the_music/the_truth_is_no_words_tab_ver_2.html ]
E|----------|
B|----------|
G|----------|
D|-2-2--4-4-|
A|-2-2--4-4-|
E|-0-0--2-2-|

Last Chorus and Interlude

E|------------------|
B|------------------|
G|-----7------------|
D|-7h9---9--7h9-7h9-|
A|------------------|
E|------------------|

E|---------------------|-------------------|
B|---------------------|-------------------|
G|-5h7-7-7-7-5-5-5-----|-9-7-6-7-6---------|
D|-----------------7-7-|-----------7/9-7/9-|
A|---------------------|-------------------|
E|---------------------|-------------------|

[----------------------------Guitar 2------------------------------]

Post Chorus Riff 1

E|-----------------------|
B|-----------------------|
G|-9-7---9-7---9-7---9-7-|
D|-----------------------|
A|-----------------------|
E|-----------------------|

Post Chorus Riff 2

E|--------------------------------------------|
B|--------------------------------------------|
G|-7h9-7-6-7-4h6-2h4--2h4-4-4-2h4-4-4-2h4-4-4-|
D|--------------------------------------------|
A|--------------------------------------------|
E|--------------------------------------------|

E|--------------------------------------------|
B|--------------------------------------------|
G|-4/6/7/9/11--11-12-9-11-7-9---12-11-9-11-11-|
D|--------------------------------------------|
A|--------------------------------------------|
E|--------------------------------------------|

E|----------------------------------|
B|----------------------------------|
G|-12/14/12-11-12-11-9-11/7h9-7-6-4-|
D|----------------------------------|
A|----------------------------------|
E|----------------------------------|
Comments