The Music - The Truth Is No Words Chords & Tabs

 

The Truth Is No Words Chords & Tabs

The Music Chords & Tabs

Version: 1 Type: Tab 0 ratings
1 star 2 stars 3 stars 4 stars 5 stars
comments

The Truth Is No Words Tab

   
the truth is no words by the music
tabbed by michael robertson

riff 1

E:----------------------------------------------------------------------------------------
B:----------------------------------------------------------------------------------------
G:---------------------4---------------------4---------------------4----------------------
D:-----------------4-7-------------------4-7-------------------4-7-------7-7-----9-9------
A:-----5-------5-7-----------5-------5-7-----------5-------5-7-----------5-5-----7-7------
E:-5-7---7-5-7-----------5-7---7-5-7-----------5-7---7-5-7-----------5-7-----5-7----------


solo 1
(1:27-1:35)

E:------------------------------------------------------------------------------------------------------
B:------------------------------------------------------------------------------------------------------
G:-9-7-9-7-9-7-9-7--------------------------------------------------------------------------------------
D:------------------------------------------------------------------------------------------------------
A:------------------------------------------------------------------------------------------------------
E:------------------------------------------------------------------------------------------------------

riff 2 
[ Tab from: http://www.guitartabs.cc/tabs/t/the_music/the_truth_is_no_words_tab.html ]
E:----------------------------------------------------------------------------------------
B:----------------------------------------------------------------------------------------
G:----------------------------------------------------------------------------------------
D:---------4---------------------4---------------------4---------------------4------------
A:-----5-7-----------5-7-----5-7-----------5-7-----5-7-----------5-7-----5-7-----------5-7
E:-7-7-------7-7-5-7-----7-7-------7-7-5-7-----7-7-------7-7-5-7-----7-7-------7-7-5-7----


solo 2 
(2:45-3:03)

E:------------------------------------------------------------------------------------------------------
B:------------------------------------------------------------------------------------------------------
G:-9-7-6-7-4-6-2-4-2-4-4-2-4-4-2-4-4-6-7-9-11-12-9-11-7-9-12-9-11-12-11-14-12-11-12-11-9-11-9-7-9-7-6-4-
D:------------------------------------------------------------------------------------------------------
A:------------------------------------------------------------------------------------------------------
E:------------------------------------------------------------------------------------------------------

solo 3
(4:05-4:35)

E:--------------------------------------------------------------------------
B:--------------------------------------------------------------------------
G:--------------------------------------------------------------------------
D:-9-9-9-9-9-9-7---7-7-9-9-7-9-9-7---7-7-9-9-7-9-9-7-11-12-14-12-11-12-11-9-
A:---------------9-----------------9----------------------------------------
E:--------------------------------------------------------------------------


E:----------------------------------------------------------------------------
B:----------------------------------------------------------------------------
G:----------------------------------------------------------------------------
D:-9-9-9-9-9-9-7---7-7-9-9-7-9-9-7---7-7-9-9-7-9-9-7-11-12-14-12-11-12-11-9-7-
A:---------------9-----------------9------------------------------------------
E:----------------------------------------------------------------------------

song order

riff 1
solo 1
riff 2
riff 1
solo 2
riff 1
solo 3
Comments