The Music - Take The Long Road And Walk It Chords & Tabs

 

Take The Long Road And Walk It Chords & Tabs

The Music Chords & Tabs

Version: 1 Type: Tab 0 ratings
1 star 2 stars 3 stars 4 stars 5 stars
comments

Take The Long Road And Walk It Tab

   
 #----------------------------------PLEASE NOTE---------------------------------#
#This file is the author's own work and represents their interpretation of the #
#song. You may only use this file for private study, scholarship, or research. #
#------------------------------------------------------------------------------#


 I love this band and especially this song. thanks to Muna (muna@blueyonder.co.uk ) who actually tabbed it! 

T  A  B  S 
 
Song:Take The Long Road and Walk It
Band:The Music

Its not complete, but hopefully will be at some point


Intro & first part of verse
|-----------------------------------------------------
|----------------------------------------------------- 
|----------------------------------------------------- 
|---7-5h7-7-7-5--------------------------------------- 
|-0------------7>6>5---------------------------------- 
|-----------------------------------------------------

When the bass comes in, it changes to this..  
|-----------------------------------------------------
|----------------------------------------------------- 
|-----------5-5-7h5----------------------------------- 
|---7-5h7-7--------7---------------------------------- 
|-0--------------------------------------------------- 
|-----------------------------------------------------

Listen out for the changes between the first & second riff. 

End of verse:
|-----------------------------------------------------
|-------------13-15-16/17\16-------------------------- (x3)
|-14-12-14-14----------------------------------------- 
|----------------------------------------------------- 
|----------------------------------------------------- 
|-----------------------------------------------------
[ Tab from: http://www.guitartabs.cc/tabs/t/the_music/take_the_long_road_and_walk_it_tab.html ]
|----------------------------------------------------- 
|----------------------------------------------------- 
|-14-12-14-14----------------------------------------- 
|----------------------------------------------------- 
|-----------------------------------------------------
|-----------------------------------------------------


|-----------------------------------------------------
|----------------------------------------------------- 
|----------------------------------------------------- 
|-7-7-7-7-7>10-10-10-10-10>9-9-9-9-9>12-12-12-12-12--- 
|----------------------------------------------------- 
|-----------------------------------------------------

|-----------------------------------------------------
|----------------------------------------------------- 
|----------------------------------------------------- 
|-7-7-7-7-7>10-10-10-10-10>9-9-9-9-9>12-12-15-14------
|----------------------------------------------------- 
|-----------------------------------------------------

|-----------------------------------------------------
|----------------------------------------------------- 
|-----------------------------------------------------
|-----------10-10-10-10-10>9-9-14-14-14>12-12-15-14-12 
|----------------------------------------------------- 
|-----------------------------------------------------

|-----------------------------------------------------
|----------------------------------------------------- 
|----------------------------------------------------- 
|-7-7-7-7-7>10-10-10-10-10>9-9-9-9-9>12-12-15-14------ 
|----------------------------------------------------- 
|-----------------------------------------------------

|-----------------------------------------------------
|----------------------------------------------------- 
|----------------------------------------------------- 
|-7-7-7-7-7>10-10-10-10-10>9-9-9-9-9>12-12-15-15-15--- 
|----------------------------------------------------- 
|-----------------------------------------------------


Tabbed by: Muna
muna@blueyonder.co.uk 
Comments