The Music - Getaway Chords & Tabs

 

Getaway Chords & Tabs

The Music Chords & Tabs

Version: 1 Type: Bass Tab 0 ratings
1 star 2 stars 3 stars 4 stars 5 stars
comments

Getaway Bass Tab

Artist: The Music
Song: Getaway
Tabber: TwinGunsBlazing@aol.com
Date: 21st December 2003
Standard Tuning

Ok, its just:

D|-----555555555555555-3333333333333333-1111111111111111-3333333333333333
A|-----------------------------------------------------------------------
D|-----------------------------------------------------------------------
G|-----------------------------------------------------------------------

Then when it hits 29 seconds it goes to this once, and then back to the first bit:
[ Tab from: http://www.guitartabs.cc/tabs/t/the_music/getaway_btab.html ]
D|-5---5------------5-3---3----------3---3-1----1-------------
A|---5---6-5-3-5-5------3---1-3-1-0----1-----1----0-1-1-0-1-0-
D|------------------------------------------------------------
G|------------------------------------------------------------

D|--3---3----------3---3--------------------------------
A|----3---1-3-1-0----1----------------------------------
D|------------------------------------------------------
G|------------------------------------------------------

I havent worked all the times these are played but this is all there is :D

This is my first tab so please rate, I couldnt find this anywhere so I just
sat down and worked it out :) I'm pretty chuffed at how well I got it
Comments