The Music - Freedom Fighters Chords & Tabs

 

Freedom Fighters Chords & Tabs

The Music Chords & Tabs

Version: 1 Type: Tab 0 ratings
1 star 2 stars 3 stars 4 stars 5 stars
comments

Freedom Fighters Tab

Hey i searched for this but couldn't find it. So i figured it out and here it is. This 
right. If it isn't I apologise.

Standard Tuning.

Intro/Chorus
|--------------------------------------------|
|--------------------------------------------|
|--------------------------------------------|
|--------------------------------------------|
|-7-7-5-5-5-7-7-5-5-5-7-7-5-5-5---4h5---4h5--|
|-5-5-3-3-3-5-5-3-3-3-5-5-3-3-3-5-----3------|
[ Tab from: http://www.guitartabs.cc/tabs/t/the_music/freedom_fighters_tab.html ]
Verse
|-----------------------------|
|-----------------------------|
|-----------------------------|
|-2-2-2-2-2-2-2-2-2-2-2-2-----|
|-0-0-0-0-0-0-0-0-0-0-0-0-3-3-|
|-------------------------1-1-|

Bridge
|------------------------------------------------|
|------------------------------------------------|
|------------------------------------------------|
|------------------------------------------------|
|-3--3--3--3--5--5--5--5--1--1--1--1--5--5--5--5-|
|-1--1--1--1--3--3--3--3--1--1--1--1--3--3--3--3-|
Comments