The Music - Cessation Chords & Tabs

 

Cessation Chords & Tabs

The Music Chords & Tabs

Version: 1 Type: Tab 0 ratings
1 star 2 stars 3 stars 4 stars 5 stars
comments

Cessation Tab

The Music
Cessation

Intro

e-------
B-7~----
G-7~----
D-7~----
A-------
E-7~----

Verse

e------------------------------------------------|-----------|
B-7777777777777-77-7777777777-77-77777777777-888-|-----------|
G-7777777777777-66-7777777777-66-77777777777-777-|---0----4--|
D-7777777777777-77-7777777777-77-77777777777-777-|--0-0--2-4-|
A------------------------------------------------|-2----4----|
E------------------------------------------------|-----------|


1st Chorus

e-----------|
B-----------|
G-----------|
D-----------|
A-2~--------|
E----3~--5~-|

Lead fill

e-----------------------------|
B-12-1010-88-77-55-33-55-77~--|
G-----------------------------|
D-----------------------------|
A-----------------------------|
E-----------------------------|

Verse
[ Tab from: http://www.guitartabs.cc/tabs/t/the_music/cessation_tab.html ]
Second Chorus, played like first chorus but with added lead part shown below

e-----------|----------------------------|
B-----------|----------------------------|
G-----------|----------------------------|
D-----------|0-2-2^2^2^-0h2-2^2^2^-0h2-2-|
A-2~--------|----------------------------|
E----3~--5~-|----------------------------|

Break down after 2nd chorus 

Bass part

e-----------|
B-----------|
G-----------|
D-----------|
A-----3-----|
E-000---0-3-|

Followed by guitar

e---------------|
B-77777---------|
G-77777-6^-6^---|
D-77777---------|
A---------------|
E---------------|

Verse

Chorus

Then just drums

Build up before final chorus

e---------------------------------|
B--555-7-7-7-555-7-7-7-555-7-7-7--|
G--777-7-7-7-777-7-7-7-777-7-7-7--|
D---------------------------------|
A---------------------------------|
E---------------------------------|

Chorus
Comments