The Music - Breakin Chords & Tabs

 

Breakin Chords & Tabs

The Music Chords & Tabs

Version: 2 Type: Tab 0 ratings
1 star 2 stars 3 stars 4 stars 5 stars
comments

Breakin Tab

-------------------------------------------------------------------------------
			     Breakin' - The Music
-------------------------------------------------------------------------------
Tabbed by: Scottyguitar
Email: scottaburn@hotmail.com

I havn't really seen any tabs for this song on the Internet that are right, so I
guessed the song and it sounds perfect.

Tuning: Standard EADGBe

Intro:                                   
e|---------------------------------------|X8
B|---------------12-1212-121212----------|
G|--11-11-11-11--11-1111-111111----------|
D|--11-11-11-11--9--9-9--9-9-9-----------|
A|--9--9--9--9---------------------------|
E|---------------------------------------|

Whenever the Rhythm plays the above power chords the lead play this:
e|-----6-----6---7--6-7--6---------------|
B|--------7----------------7-------------|
G|---------------------------------------|
D|---------------------------------------|
A|---------------------------------------|
E|---------------------------------------|

Verse:
e|--3-2--2--3-2--------------------------------|X8
B|------------------3-2------------------------|
G|--------------2------------------------------|
D|-----------------------0-----0-----0--2--4---|
A|--------------------------2-----2------------|
E|---------------------------------------------|

Bridge:
e|----------------------------------------------------|X4
B|---7--7--7--7-7--7--7---9--9--9-9-10-10-10-1010-----|
G|---6--6--6--6-6--6--6---8--8--8-8-9--9--9--9-9------|
D|---4--4--4--4-4--4--4---6--6--6-6-7--7--7--7-7------|
A|----------------------------------------------------|
E|----------------------------------------------------|
[ Tab from: http://www.guitartabs.cc/tabs/t/the_music/breakin_tab_ver_2.html ]
Chorus:
e|---------------------------------------|X8
B|---------------12-1212-121212----------|
G|--11-11-11-11--11-1111-111111----------|
D|--11-11-11-11--9--9-9--9-9-9-----------|
A|--9--9--9--9---------------------------|
E|---------------------------------------|
Again the lead plays the tune shown at the top in the intro
Then at the end of the chorus it goes:
e|------------|
B|-----12-----|
G|--11-11-----|
D|--11-9------|
A|--9---------|
E|------------|

Verse:
e|--3-2--2--3-2--------------------------------|X8
B|------------------3-2------------------------|
G|--------------2------------------------------|
D|-----------------------0-----0-----0--2--4---|
A|--------------------------2-----2------------|
E|---------------------------------------------|

Bridge:
e|----------------------------------------------------|X4
B|---7--7--7--7-7--7--7---9--9--9-9-10-10-10-1010-----|
G|---6--6--6--6-6--6--6---8--8--8-8-9--9--9--9-9------|
D|---4--4--4--4-4--4--4---6--6--6-6-7--7--7--7-7------|
A|----------------------------------------------------|
E|----------------------------------------------------|

Chorus:
e|---------------------------------------|X8
B|---------------12-1212-121212----------|
G|--11-11-11-11--11-1111-111111----------|
D|--11-11-11-11--9--9-9--9-9-9-----------|
A|--9--9--9--9---------------------------|
E|---------------------------------------|

e|---------------------------------------|
B|-----12---------------------12---------|
G|--11-11-----------------11--11---------|
D|--11-9------------------11--9----------|
A|--9---------------------9--------------|
E|---------------------------------------|
Then it has a big break from guitar I think, theres a bit that just goes

e|------------------------------|
B|------------------------------|
G|------------------------------|
D|------------------------------|
A|------------------------------|
E|---22222222222222222222-------|

Chorus:
e|---------------------------------------|X8
B|---------------12-1212-121212----------|
G|--11-11-11-11--11-1111-111111----------|
D|--11-11-11-11--9--9-9--9-9-9-----------|
A|--9--9--9--9---------------------------|
E|---------------------------------------|
The lead seems a bit louder at this final chorus
e|------------|
B|-----12-----|
G|--11-11-----|
D|--11-9------|
A|--9---------|
E|------------|

Hope you like it, E-mail me if theres owt missing or sounds wrong
============================================================================
Comments