The Music - Breakin Chords & Tabs

 

Breakin Chords & Tabs

The Music Chords & Tabs

Version: 1 Type: Tab 0 ratings
1 star 2 stars 3 stars 4 stars 5 stars
comments

Breakin Tab

Band Name: The Music
Song Name: Breakin'
Tabbed By: Terry Sims (Masterofdarknes)
Email: Floyd_Fan@teenspot.com

Tuning: Normal

Intro Riff
[ Tab from: http://www.guitartabs.cc/tabs/t/the_music/breakin_tab.html ]
|-------------------------------------------------------------------|
|-------------------------------------------------------------------|
|-------------------------------------------------------------------|
|-------------------------------------------------------------------|
|--2----2----2----2----0----7---0---0-------------------------------|
|--0----0----0----0---------------------12---0----------------------|

Main Riff

|--1--0----0----1--0------------1-0---------------------------------|
|----------------------------------0--------------------------------|
|-------2--0----------0---------------------------------------------|
|--------------------------3----------3----0--3--0--3--0--5--0--7---|
|-------------------------------------------------------------------|
|-------------------------------------------------------------------|

Any comments or crit then email me or pm me.
Thanks.
Comments