The Moonkrackers - Dancehall Dilemma Chords & Tabs

 

Dancehall Dilemma Chords & Tabs

The Moonkrackers Chords & Tabs

Version: 1 Type: Bass Tab 0 ratings
1 star 2 stars 3 stars 4 stars 5 stars
comments

Dancehall Dilemma Bass Tab

Artist – The MoonKrackers

Song – Dancehall Dilemma

Tuning Standard


Intro 

Let Guitar one play its riff twice then:

G |--------------------------------|
D |--------------------------------|
A |-7~-7-3~-3-5~-5-3-3-3-3-5-5-7-7-|
E |--------------------------------|

Verse
[ Tab from: http://www.guitartabs.cc/tabs/t/the_moonkrackers/dancehall_dilemma_btab.html ]
G |-----------------------------------------------------|
D |-----5-----------5-----------3-----------------------|
A |-7-7---7-7-7-3-3---3-3-3-5-5---5-5-5-3-3-3-3-5-5-7-7-|
E |-----------------------------------------------------|

Chorus

G |-----------------------------------|
D |-----------------------------------|
A |-7-7-7-7-7-7-7-5---------5-5-5-5---|
E |-----------------5-5-5-5-----------|

Breakdown

G |------------------------------|
D |------------------------------|
A |-------------5--------5-5-5-|
E |-7-7-7-7-7---7/3-3--------|

Order
Intro x1
Verse x 4
Chorus x 8
Intro x 1
Verse x 2
Chorus x 8
Breakdown x 4
Chorus x 8
Comments