The Moonkrackers - Dancehall Dilema Chords & Tabs

 

Dancehall Dilema Chords & Tabs

The Moonkrackers Chords & Tabs

Version: 1 Type: Tab 0 ratings
1 star 2 stars 3 stars 4 stars 5 stars
comments

Dancehall Dilema Tab

Band: The MoonKrackers
Title: Dancehall Dilema
Tabber: harry
Guitar 1

Tuning: Standard 


Verse
|----------------------------------------------------------|
|----------------------------------------------------------|
|-----5-5--------------------------------------------------|
|---------7-7-5-5-4-4-5-5-4-4------------------------------|
|-7-7-------------------------5-2--------------------------|
|----------------------------------------------------------|

|----------------------------------------------------------|
|----------------------------------------------------------|
|-----5-5--------------------------------------------------|
|---------7-7-5-5-4-4-5-5-4-4-7-7--------------------------|
|-7-7------------------------------------------------------|
|----------------------------------------------------------|

Chorus 1 (you can work the rhythm out for yourself for both chorus and bridge)
|----------------------------------------------------------|
|----------------------------------------------------------|
|----------------------------------------------------------|
|----------------------------------------------------------|
|-7-----10-----7-------------------------------------------|
|--------------------7-----5-----10------------------------|
[ Tab from: http://www.guitartabs.cc/tabs/t/the_moonkrackers/dancehall_dilema_tab.html ]
Chorus 2 
|----------------------------------------------------------|
|----------------------------------------------------------|
|----------------------------------------------------------|
|-9-----12-----9-------------------------------------------|
|-7-----10-----7-----9-----7-----12------------------------|
|--------------------7-----5-----10------------------------|

Bridge
|----------------------------------------------------------|
|----------------------------------------------------------|
|----------------------------------------------------------|
|----------------------------------------------------------|
|-9-----10----9-----7-----5-----12-------------------------|
|-7-----8-----7-----5-----3-----10-------------------------|

|----------------------------------------------------------|
|----------------------------------------------------------|
|-------------------------9-----13-------------------------|
|-------------------------10----14-------------------------|
|-9-----------9-----------10----14-------------------------|
|-7-----8-----7-----8-----8-----12-------------------------|

Chorus 3
|----------------------------------------------------------|
|----------------------------------------------------------|
|-9-----12-----14------------------------------------------|
|-x-----x------x-------------------------------------------|
|-7-----10-----12------------------------------------------|
|----------------------------------------------------------|

Outro
|----------------------------------------------------------|
|---------------------12-----------------------------------|
|-9-----12-----14-----12-----------------------------------|
|-9-----12-----12-----12-----------------------------------|
|-7-----10-----12-----10-----5-----------------------------|
|----------------------------------------------------------|
			
Comments