The Mongols - Odd Even Chords & Tabs

 

Odd Even Chords & Tabs

The Mongols Chords & Tabs

Version: 1 Type: Tab 0 ratings
1 star 2 stars 3 stars 4 stars 5 stars
comments

Odd Even Tab

Song: Odd Even
Artist/Band: The Mongols
Album: Buddha's Pest
Submitted by: bogey

*Yung lead sa intro pati outro hindi ko makapa eh. Pero yung buo alam ko.

Intro: (plucking muna bago ito)

E|------------------------------------------|
B|------------------------------------------|
G|--------------7------------------7--------|
D|----5----9----7--------5----9----7--------|
A|----5----9----5--------5----9----5--------|
E|----3----7-------------3----7-------------|

Verse:

E|------------------------------------------|
B|------------------------------------------|
G|----------------7-------------------7-----|
D|----5-----9-----7------5-----9------7-----|
A|----5-----9-----5------5-----9------5-----|
E|----3-----7------------3-----7------------|
     Gusto mong dumaan, di ka napagbigyan

E|-----------------------------------------------|
B|-----------------------------------------------|
G|--------------7--------------------------7-----|
D|----5-----9---7-------------5-----9------7-----|
A|----5-----9---5-------------5-----9------5-----|
E|----3-----7-----------------3-----7------------|
     Ilang oras ang lumipas, di ka ba nababanas

E|-------------------------------------|
B|-------------------------------------|
G|-----5--4---7-----5--4---7---------|
D|-----5--4---7-----5--4---7---------|
A|-----3--2---5-----3--2---5---------|
E|-------------------------------------|

E|------------------------------------------|
B|------------------------------------------|
G|----------------7-------------------7-----|
D|----5-----9-----7------5-----9------7-----|
A|----5-----9-----5------5-----9------5-----|
E|----3-----7------------3-----7------------|
     Gusto mong lumabas, san ka ba madalas
[ Tab from: http://www.guitartabs.cc/tabs/t/the_mongols/odd_even_tab.html ]
E|------------------------------------------------|
B|------------------------------------------------|
G|--------------7---------------------------7-----|
D|----5-----9---7--------------5-----9------7-----|
A|----5-----9---5--------------5-----9------5-----|
E|----3-----7------------------3-----7------------|
     Ilang beses nang tumawag, nakikusap sa ulan

Chorus:

E|-----------------------------------------------|
B|-----------------------------------------------|
G|---5--4---------7-----5--4---------7---------|
D|---5--4---------7-----5--4---------7---------|
A|---3--2---------5-----3--2---------5---------|
E|-----------------------------------------------|
    Odd even ba ngayon, odd even ba ngayon

E|-----------------------------------------------|
B|-----------------------------------------------|
G|---5--4---------7-----5--4---------7---------|
D|---5--4---------7-----5--4---------7---------|
A|---3--2---------5-----3--2---------5---------|
E|-----------------------------------------------|
    Odd even ba ngayon, odd even ba ngayon


E|------------------------------------------|
B|------------------------------------------|
G|--5---4/5-5---4/5----5---4-------7-------|
D|--5---4/5-5---4/5----5---4-------7-------|
A|--3---2/3-3---2/3----3---2-------5-------| 2x
E|------------------------------------------|
   Odd even, odd even, odd even ba ngayon

Verse 2:

E|-------------------------|
B|-------------------------|
G|---------------------7---|
D|---5-----------------7---|
A|---5-----------------5---|
E|---3---------------------|
    Nagyayang maglasing

E|-------------------------|
B|-------------------------|
G|---------------------7---|
D|---5-----------------7---|
A|---5-----------------5---|
E|---3---------------------|
      Di ka na magising

E|----------------------------------------------------------|
B|----------------------------------------------------------|
G|----------------7-----------------------------------7-----|
D|----5-----9-----7-------------5----------9----------7-----|
A|----5-----9-----5-------------5----------9----------5-----|
E|----3-----7---------------------3--------7----------------|
      Di na bale ang pasakalye, at meron lang itatanong

(repeat chorus)

Paki-rate...
Comments