The Mission Uk - Like A Child Again Chords & Tabs

 

Like A Child Again Chords & Tabs

The Mission Uk Chords & Tabs

Version: 1 Type: Tab 0 ratings
1 star 2 stars 3 stars 4 stars 5 stars
comments

Like A Child Again Tab

The Mission UK - Like a child again

Riff 1
------------------------------------------------------------|
e|-0------------0------------0--0----------0--0----------0--|
B|-0------------0------------0--0----------0--0----------0--|
G|-4-strum...---11-strum...--12-7-strum...-11-6-strum...-6--|
D|-4------------11-----------12-7----------11-6----------6--|
A|-2------------9------------10-5----------9--4----------5--|
E|----------------------------------------------------------|

Riff 2 (Distortion guitar)
-----------------------------------------------------------------|
e|---------------------------------------------------------------|
B|-[Feedback to start]----14-15-17~~~~~-s15-14h15p14-12~~~~------|
G|---------------------------------------------------------------|
D|---------------------------------------------------------------|
A|---------------------------------------------------------------|
E|---------------------------------------------------------------|

Riff 3 (Verse riff)
-----------------------------------|
e|-----2---3---2-------------------|
B|---------------------------------|
G|-2-4---4--------2----------------|
D|---------------------------------|
A|---------------------------------|
E|---------------------------------|

Riff 4
-----------------------------------|
e|-2-3-2-------2---3---2-----------|
B|-------3-------------------------|
G|---------2-4---4-------2---------|
D|---------------------------------|
A|---------------------------------|
E|---------------------------------|

Riff 5
-----------------------------------|
e|-7-------------------------------|
B|---8-7-------(0)...--------------| (Bracket note is actually the
G|-------7-6-7---------------------|  first note of the chorus riff)
D|---------------------------------|
A|---------------------------------|
E|---------------------------------|

Riff 6 (Chorus)
-----------------------------------------------------------------|
e|---------7------5--7-----14--5---------------------------------|
B|-0--7-------7--------------------------------------------------|
G|---------------------------------------------------------------|
D|---------------------------------------------------------------|
A|---------------------------------------------------------------|
E|---------------------------------------------------------------|
[ Tab from: http://www.guitartabs.cc/tabs/t/the_mission_uk/like_a_child_again_tab.html ]
Riff 7 (Chorus - Clean guitar, 12 string)
-----------------------------------------------------------------|
e|-2---------------2-------------5------------4------------------|
B|-5---------------2-------------5------------7------------------|
G|-4--strum...-----4--strum...---7--strum...--6--strum...--------|
D|-4---------------4-------------7------------6------------------|
A|(2)-------------(2)-----------(5)----------(4)-----------------|
E|---------------------------------------------------------------|
 | B sus4          F# sus4       D sus2       C#sus 4

Riff 8 (Solo - 1st part)
-----------------------------------------------------------------|
e|-12^--12^--12^--12^--12^---------------------------------------|
B|--------------------------12-10--------------------------------|
G|--------------------------------11~~~--9-------9~~~\-----------|
D|-----------------------------------------11-12-----------------|
A|---------------------------------------------------------------|
E|---------------------------------------------------------------|

Riff 9 (Solo - 2nd part)
-----------------------------------------------------------------|
e|-12--15-10-12~~-15-10-12~~-------------------------------------|
B|----------------------------------10-12~~~-10----------10~~~---|
G|-----------------------------9-11-------------12-11-12---------|
D|---------------------------9-----------------------------------|
A|---------------------------------------------------------------|
E|---------------------------------------------------------------|

e|-----*Toms start here------------------------------------------|
B|-----15----12--------------------------------------------------|
G|--------14----14----14-----------------------------------------|(Start of next riff)
D|-----------------16----16-14-16-14-12---------(14~~-12~~)------|
A|--------------------------------------16-14-16-----------------|
E|---------------------------------------------------------------|

Riff 10 (Solo - 3rd part)
-----------------------------------------------------------------|
e|---------------------------------------------------------------|
B|-----------------------------------14-15-17~~~--14h15p14-12~~--|
G|---------------------------------------------------------------|
D|-14~~--12~~----------------------------------------------------|
A|---------------------------------------------------------------|
E|---------------------------------------------------------------|

Riff 11 (Ending)
-----------------------------------------------------------------|
e|---------------------------------xxxx--------------------------|
B|-5----3----2--0------------2--3--0000--------------------------|
G|------------------2--0-----------------------------------------|
D|------------------------4--------------------------------------|
A|---------------------------------------------------------------|
E|---------------------------------------------------------------|
Comments