The Minibosses - Contra Level Chords & Tabs

 

Contra Level Chords & Tabs

The Minibosses Chords & Tabs

Version: 1 Type: Tab 0 ratings
1 star 2 stars 3 stars 4 stars 5 stars
comments

Contra Level Tab

The Minibosses
Contra Level 2
Tabbed by: Hashmir Al Bashad
Email: revogovx@yahoo.com


E  :------9----12-11-10---------|------9----11-12-13---------|
B  :11-11---11------------------|11-11---11------------------|
G  :----------------------------|----------------------------|
D  :----------------------x3----|----------------------------|
A  :----------------------------|----------------------------|
E  :----------------------------|----------------------------|
[ Tab from: http://www.guitartabs.cc/tabs/t/the_minibosses/contra_level_tab.html ]
E  :------11----14-13-11---------|------11----13-14-15---------|
B  :13-13----13------------------|13-13----13------------------|
G  :-----------------------------|-----------------------------|
D  :-----------------------x3----|-----------------------------|
A  :-----------------------------|-----------------------------|
E  :-----------------------------|-----------------------------|

E  :----------------------------|
B  :----------------------------|
G  :----------------------------|
D  :----------------------------|
A  :----------------------------|
E  :3-0-4-4-0-3-3-0-0-4-4-0-0---|
Comments