The Mars Volta - Take The Veil Chords & Tabs

 

Take The Veil Chords & Tabs

The Mars Volta Chords & Tabs

Version: 1 Type: Bass Tab 0 ratings
1 star 2 stars 3 stars 4 stars 5 stars
comments

Take The Veil Bass Tab

   
#----------------------------------PLEASE NOTE---------------------------------#
#This file is the author's own work and represents their interpretation of the #
#song. You may only use this file for private study, scholarship, or research. #
#------------------------------------------------------------------------------#

The Mars Volta
"Take the veil Cerpin Taxt"
-tabbed by ajy
-vaya@optonline.net


Verse:

G  :|---------------------| 4x
D  :|---------------------|
A  :|-5-5---5-5-3---------|
E  :|-------------4-3/1---|

G  :|----------|----------| 
D  :|----------|----------|
A  :|-5---5-5--|----------|
E  :|----------|-10-10/1--|

G  :|------------------------------------------------------------------------------------|
D  :|------------------3-3-3-3-----------------------------------------------------------|
A  :|-5-5-5-5-----------------------------5-5-5-5---------------------------0-0-0-0-0-0-0|
E  :|---------6-6-6-6------------6-6-6-6-------------6-6-6-6--3-3-3-3-3-3-3--------------|



G  :|---------------------| 
D  :|---------------------|
A  :|-0-0-----3-3-----4---|
E  :|-----3-3-----3-3-----|


G  :|----------------------|
D  :|----------------------|
A  :|-5-5-5-5-5-5-5-5-5-5-5|
E  :|----------------------|

Jam:
This part you will need to try to play by hear. But here is something to start from.
[ Tab from: http://www.guitartabs.cc/tabs/t/the_mars_volta/take_the_veil_btab.html ]
G  :|------------------------------------|
D  :|--10h12-12-12-12-10h12--------------|
A  :|-----------------------12-12-12-12--| 
E  :|------------------------------------|

G  :|------------------------------------|
D  :|--10h12-12-12-12-10h12--------------|
A  :|-----------------------12-12-12-10-8| 
E  :|------------------------------------|

G  :|------------------------------------|
D  :|--------------------------10--------|
A  :|--10h12-12-12-12-10-12-10----10-----|
E  :|------------------------------------|



G  :|---------7-5-7-5--------------------|
D  :|--0---7----------5-7----------------|
A  :|------------------------------------|
E  :|------------------------------------|


G  :|------------------------------------|
D  :|------------------------------------|
A  :|--5-5h7-5----3h5-3---1h3-3-0-0-0-0-0| 
E  :|----------6--------3----------------|



G  :|----------------------------------------------------|
D  :|----------------------------------------------------|
A  :|-5-5-5-5-5-5--5-5-5-5-5-5---------------------------|
E  :|---------------------------5-5-5-5-5-5--5-5-5-5-5-5-|

G  :|---------------------------------------------------------------|
D  :|---------------------------------------------------------------|
A  :|---------------------------4-4-4-4-4-4--4-4-4-4-4-4---5-5-5-5-5|
E  :|-3-3-3-3-3-3--1-1-1-1-1-1--------------------------------------|
Comments