The Marble Index - I Believe Chords & Tabs

 

I Believe Chords & Tabs

The Marble Index Chords & Tabs

Version: 1 Type: Tab 0 ratings
1 star 2 stars 3 stars 4 stars 5 stars
comments

I Believe Tab

   
-----------------------------------------------------------------------------
			     I BELIEVE - The Marble Index
-----------------------------------------------------------------------------
The Marble Index is an indie band out of Hamilton, ON, CA, and are currently touring
Canada and the UK, after opening for Billy Talent in Halifax last month. The band has
released their first album last summer.


Tabbed by: Doug Laing
Email: Shoebox81@hotmail.com

Tuning:EADGBe
Intro/Chorus
e|---------------------x--x--x-------------------------------------|
B|--------------3-3-3--x--x--x-------------------------------------|
G|------2-------2-2-2--x--x--x-------------------------------------|
D|------2-------0-0-0--x--x--x-------------------------------------|
A|------0---3----------x--x--x-------------------------------------|
E|---------------------x--x--x-------------------------------------|
[ Tab from: http://www.guitartabs.cc/tabs/t/the_marble_index/i_believe_tab.html ]
e|---------------------------------------------------------------|
B|--------------3-3-3--------------------------------------------|
G|------2-------2-2-2--2-2-2-------------------------------------|
D|------2-------0-0-0--2-2-2----x5-------------------------------|
A|------0---3----------0-0-0-------------------------------------|
E|---------------------------------------------------------------|

Verse:
Am Am Dm Dm Am Am E  E
Am Am Dm Dm Am E  Am Am

Post Chorus:
C/G E  Dm Am
C/G Bm Bb Bb

Am:  x02210
Dm:  xx0231
E:   022100
C/G: 332010
Bm:  x24432
Bb:  x13331


| /  slide up
| \  slide down
| h  hammer-on
| p  pull-off
| ~  vibrato
| +  harmonic
| x  Mute note
=============================================================================
Comments