The Mamas & The Papas - California Dreamin' Chords & Tabs

 

California Dreamin' Chords & Tabs

The Mamas & The Papas Chords & Tabs

Version: 1 Type: Chords 0 ratings
1 star 2 stars 3 stars 4 stars 5 stars
comments

California Dreamin' Chords

   
#----------------------------------PLEASE NOTE---------------------------------#
#This file is the author's own work and represents their interpretation of the #
#song. You may only use this file for private study, scholarship, or research. #
#------------------------------------------------------------------------------#

Artist:   The Mamas & the Papas
Title:    CALIFORNIA DREAMIN'
Album:    If You Can Beleive Your Eyes and Ears (c) 1966

~~~~~~~~~~~~~~~~~~~~~~~~
--- Tab by JiM Caron ---
~~~~~~~~~~~~~~~~~~~~~~~~

*the song is played with a capo at 4th fret (chords shape are relative to the capo)

   _________E____E_
Chords:   | Am:     002210 |
          | G:      355433 |
  | F:      133211 |
  | E7sus4: 020200 |
  | E7:     020100 |
  | C:      032010 |
   ~~~~~~~~~~~~~~~~

Chords Progression:

 ~~~~~~~~~~~~~~~~~~~~~~~~~~~~~~~~~~~~~~~~~~~~~~~~~~~~~~~~~~~~~~~~~~~~~~~~~~~~~~~~~~~~
|VERSE 1:
|               Am            G          F               G     E7sus4         E7
|  ..leaves are brown----------------------------------------------------------------
|
|  F               C               E7    Am         F        E7sus4              E7
|  I've been for a walk--------------------------------------------------------------
|
|AmGFGE7sus4E7
|AmGFGE7sus4E7
|~~~~~~~~~~~~~~~~~~~~~~~~~~~~~~~~~~~~~~~~~~~~~~~~~~~~~~~~~~~~~~~~~~~~~~~~~~~~~~~~~~~~
|VERSE 2:
|AmGFGE7sus4E7
|F   C   E7  Am    F     E7sus4E7
|AmGFGE7sus4E7
|AmGFGE7sus4E7
|~~~~~~~~~~~~~~~~~~~~~~~~~~~~~~~~~~~~~~~~~~~~~~~~~~~~~~~~~~~~~~~~~~~~~~~~~~~~~~~~~~~~
|
|
|FLUTE SOLO for guitar:
| Standard Tuning ** without CAPO **  (it can easily be play with the capo anyway)
|
| chords :  Am ----- F C E7 Am F E7sus4 E7
|  for   :  Am G F G E7sus4 E7
|  solo  :  Am G F G E7sus4 E7
[ Tab from: http://www.guitartabs.cc/tabs/t/the_mamas_the_papas/california_dreamin_crd.html ]
---------|---------------------|------------------|--------------5---|--5p4--4--|
-5-(5)---|--4--5-7------5p4-h5-|--4-5-7----5------|------------------|----------|
---------|---------------------|---------------6--|--4--5--/6--------|----------|
---------|---------------------|------------------|------------------|----------|
---------|---------------------|------------------|------------------|----------|
---------|---------------------|------------------|------------------|----------|

                                                                               
-----------12--17-|-16-----14~~------|-16-----14~~------|-16-16---16p14--14|
---------14-------|-----17--------14-|-----17--------14-|--------------16--|
------------------|------------------|------------------|------------------|
------------------|------------------|------------------|------------------|
------------------|------------------|------------------|------------------|
------------------|------------------|------------------|------------------|

                                                              /- - - - - - -               
16--16-16-19p16-14|-16----15------16-|----16-14---12-14-|-16--16-16-14-14--|
------------------|----17------17----|-17---------------|------------------|
------------------|------------------|------------------|------------------|
------------------|------------------|------------------|------------------|
------------------|------------------|------------------|------------------|
------------------|------------------|------------------|------------------|

- - - - - - - - - \                                                                        
11-11-8-8-5-5-5-4-4----|
-----------------------|
-----------------------|
-----------------------|
-----------------------|
-----------------------|

 capo 4th

 ~~~~~~~~~~~~~~~~~~~~~~~~~~~~~~~~~~~~~~~~~~~~~~~~~~~~~~~~~~~~~~~~~~~~~~~~~~~~~~~~~
|VERSE 3 & OUTRO:
|
| All the leaves are brown...  AmGFGE7sus4E7
| F CE7AmFE7sus4E7
| AmGFGE7sus4E7
| AmGFG
| AmGFG
| AmGFG
| F-----  (Am)
|
 ~~~~~~~~~~~~~~~~~~~~~~~~~~~~~~~~~~~~~~~~~~~~~~~~~~~~~~~~~~~~~~~~~~~~~~~~~~~~~~~~~

Thanks
-JiM
Comments