The Magic Numbers - Love Me Like You Chords & Tabs

 

Love Me Like You Chords & Tabs

The Magic Numbers Chords & Tabs

Version: 1 Type: Bass Tab

Love Me Like You Bass Tab

   
                                    (Bassline)


 4/4
  Gtr I
Intro
  E E  E  E E E  E  E E E  E  E E E  E  E E E  E  E E E  E  E E E  E  E E E  E  E
|-----------------------------------------------------------------------------------|
|-9-9-----------------9-9-----------------9-9-----------------9-9-------------------|
|-----11-11-9-9-11-11-----11-11-9-9-11-11-----11-11-9-9-11-11-----11-11-9-9-11-11---|
|-----------------------------------------------------------------------------------|

Verse 1
  E E E E E E E E E E E E E  E E E E E E E E E E E E E E E E  E E E
|--------------------------------8--------------------------------8----|
|-9-9-9-9-9-9-9-9-9-9-9-9-9--------9-9-9-9-9-9-9-9-9-9-9-9-9-----------|
|---------------------------11-9-----------------------------11-9------|
|----------------------------------------------------------------------|


   Q   Q   E  E E E  Q   Q   E  E E  E Q   Q   E  E E  E Q   Q   E  E E  E
|--------------------------------------------------------------------------|
|-11--11--11------------11--11------------11--11------------11--11-11---11-|
|------------11----------------11----------------11------------------------|
|-----------------9--9---------------9-9---------------9-9-----------------|


  E E E E E E E E E E E E E E E E E E E E E E E E E E E E E E E E
|--------------------------------------------------------------------|
|--------------------------------------------------------------------|
|-9-9-9-9-9-9-9-9-9-9-9-9-9-9-9-9-9-9-9-9-9-9-9-9-9-9-9-9-9-9-9-9----|
|--------------------------------------------------------------------|


  E E E E E E E E E E E E E E  E E
|-------------------------------------|
|--------------------------------9----|
|---------------------------9-11------|
|-7-7-7-7-7-7-7-7-7-7-7-7-7-----------|

Verse 2
  E E  E  E E E  E  E E E  E  E E E  E E E E  E  E E E  E  E E E  E  E E E  E  E
|-----------------------------------------------------------------------------------|
|-9-9-----------------9-9--------------9---9-----------------9-9--------------------|
|-----11-11-9-9-11-11-----11-11-9-9-11-------11-11-9-9-11-11-----11-11-9-9-11-11----|
|-----------------------------------------------------------------------------------|


  Q   Q   E  E E  E Q   Q   E  E E  E Q   Q   E  E E  E Q   Q   E  E E  E
|-------------------------------------------------------------------------|
|----11--11------------11--11------------11--11------------11--11-11---11-|
|-----------11----------------11----------------11------------------------|
|-9---------------9-9---------------9-9---------------9-9-----------------|


  E E E E E E E E E E E E E E E E E E E E E E E E E E E E E E E E
|--------------------------------------------------------------------|
|--------------------------------------------------------------------|
|-9-9-9-9-9-9-9-9-9-9-9-9-9-9-9-9-9-9-9-9-9-9-9-9-9-9-9-9-9-9-9-9----|
|--------------------------------------------------------------------|


  E E  E  E E E  E  E E E  E  E E E  E  E  E  E  E  E  E  E  E  E  E  E  E  E  E  E  E  E
|-----11-11-----11-11-----11-11-----11-11-11-11-11-11-11-11-11-11-11-11-11-11-11-11-11-11----|
|--------------------------------------------------------------------------------------------|
|-9-9-------9-9-------9-9-------9-9----------------------------------------------------------|
|--------------------------------------------------------------------------------------------|

Chorus
  Q.  Q E E E   Q  E Q  E E E Q.  Q E E E   Q  E Q  E E E
|-----9-9-9-9---8--8--------------9-9-9-9---8--8-------------|
|--------------------9--9-9-9--------------------9--9-9-9----|
|------------------------------------------------------------|
|-0---------------------------0------------------------------|


  E E E E E E E E E E E E E E E E E E E E E E E E E  E  E  E  E  E  Q
|---------------------------------------------------11-11-11-11-11-11----|
|------------------------------------------------------------------------|
|-9-9-9-9-9-9-9-9-9-9-9-9-9-9-9-9-9-9-9-9-9-9-9-9-9----------------------|
|------------------------------------------------------------------------|


  Q.  Q E E E Q  E Q  E E E Q.   Q  E E E Q  E Q  E E E
|-9---9-9-9-9-8--8---------------9--9-9-9-8--8-------------|
|------------------9--9-9-9--------------------9--9-9-9----|
|----------------------------------------------------------|
|---------------------------0------------------------------|


  E E E E E E E E E E E E E E E E E E E E E E E E E E E E E E E E
|--------------------------------------------------------------------|
|--------------------------------------------------------------------|
|-9-9-9-9-9-9-9-9-9-9-9-9-9-9-9-9-9-9-9-9-9-9-9-9-9-9-9-9-9-9-9-9----|
|--------------------------------------------------------------------|


  E E E E E E E E E E E E E Q.
|---------------------------------|
|---------------------------------|
|---------------------------------|
|-7-7-7-7-7-7-7-7-7-7-7-7-7-------|


  E E  E  E E E  E  E E E  E  E E E  E E E E  E  E E E  E  E E E  E  E E E  E  E
|-----------------------------------------------------------------------------------|
|-9-9-----------------9-9--------------9---9-----------------9-9--------------------|
|-----11-11-9-9-11-11-----11-11-9-9-11-------11-11-9-9-11-11-----11-11-9-9-11-11----|
|-----------------------------------------------------------------------------------|


  Q   Q   E  E E  E Q   Q   E  E E  E Q   Q   E  E E  E Q   Q   E  E E  E
|-------------------------------------------------------------------------|
|----11--11------------11--11------------11--11------------11--11-11---11-|
|-----------11----------------11----------------11------------------------|
|-9---------------9-9---------------9-9---------------9-9-----------------|


  E E E E E E E E E E E E E  E E  E E E E E E E E E E E E E E E E E
|----------------------------------------------------------------------|
|---------------------------11---11------------------------------------|
|-9-9-9-9-9-9-9-9-9-9-9-9-9----9----9-9-9-9-9-9-9-9-9-9-9-9-9-9-9-9----|
|----------------------------------------------------------------------|


  E E E E E E E E E E E E E E Q
|----------------------------------|
|-------------------9---9---9------|
|-----------------9---9---9---9----|
|-7-7-7-7-7-7-7-7------------------|

Verse 3
  E E E E E E E E E E E E E E E E E E E E E E E E E E E E
|------------------------------------------------------------|
|------------------------------------------------------------|
|------------------------------------------------------------|
|-7-7-7-7-7-7-7-7-7-7-7-7-7-7-7-7-7-7-7-7-7-7-7-7-7-7-7-7----|


  Q   Q   E  E E E Q   Q   E  E E E Q   Q   E  E E E Q   Q  E  E  E  E
|-------------------------------------------------------------------------|
|----11--11-----------11--11-----------11--11-----------11----11-11-11----|
|-----------11---------------11---------------11--------------------------|
|-9--------------9-9--------------9-9--------------9-9--------------------|


  E E E E E E E E E E E E E E E E E E E E E E E E E E E E E E E E
|--------------------------------------------------------------------|
|--------------------------------------------------------------------|
|-9-9-9-9-9-9-9-9-9-9-9-9-9-9-9-9-9-9-9-9-9-9-9-9-9-9-9-9-9-9-9-9----|
|--------------------------------------------------------------------|

[ Tab from: http://www.guitartabs.cc/tabs/t/the_magic_numbers/love_me_like_you_btab.html ]
  E E  E  E E E  E  E E E  E  E E E  E  E  E  E  E  E  E  E  E  E  E  E  E  E  E  E  E  E
|-----11-11-----11-11-----11-11-----11-11-11-11-11-11-11-11-11-11-11-11-11-11-11-11-11-11----|
|--------------------------------------------------------------------------------------------|
|-9-9-------9-9-------9-9-------9-9----------------------------------------------------------|
|--------------------------------------------------------------------------------------------|

Chorus

Bridge
  W        W        W        W
|---------------------------------|
|---------------------------------|
|----------9----------------------|
|-7-----------------4-------------|


  Q  H.      E E Q  E Q.    E  E Q.   H
|-------------------8----------------------|
|---------------------9--------------------|
|------------9-9-----------11-11-----------|
|-7----------------------------------------|


   E  E  E  E  E  E  E  E  E  E  E  E  E  E  E  E  E  E  E  E  E  E  E  E  E  E  E  E  W
|-16-15-16-15-16-15-16-15-16-15-16-15-16-15-16-15-16-15-16-15-16-15-16-15-16-15-16-15-16----|
|-------------------------------------------------------------------------------------------|
|-------------------------------------------------------------------------------------------|
|-------------------------------------------------------------------------------------------|


  E E E E E E E E E E E E E E E E E E E E E E E E E E E E E E E E
|--------------------------------------------------------------------|
|--------------------------------------------------------------------|
|-----------------6-6-6-6-6-6-6-6------------------------------------|
|-7-7-7-7-7-7-7-7-----------------4-4-4-4-4-4-4-4-4-4-4-4-4-4-6-6----|


  E E E E E E E E E E E E E E E E E E E E E E E E E E E E E E E E
|--------------------------------------------------------------------|
|--------------------------------------------------------------------|
|-7-7-7-7-7-7-7-7-7-7-7-7-7-7-6-6-4-4-4-4-4-4-4-4-4-4-4-4-4-4-6-6----|
|--------------------------------------------------------------------|


  E E E E E E E E E E E E E E E E  E  E  E  E  E  E  E  E  E  E  E  E  E  E E E
|---------------------------8---8-------13-----------------------------------------|
|----------------------------------------------------------------------------------|
|-----------------6-6-6-6-6---6---11-11----11-11-11-11-11-11-11-11-11-11-11-9-9----|
|-7-7-7-7-7-7-7-7------------------------------------------------------------------|


  E E E E E E E E E E E E E E E E E E E E E E E E E E E E E E E E
|--------------------------------------------------------------------|
|-------------------------------------------------------------4-4----|
|-7-7-7-7-7-7-7-7-7-7-7-7-7-7-6-6-4-4-4-4-4-4-4-4-4-4-6-6-7-7--------|
|--------------------------------------------------------------------|


  E E E E E E E E E E E E E E E E  E  E  E  E  E  E  E  E  E  E  E  E  E  E E E
|---------------------------8---8-------13----------13----------13-----------------|
|----------------------------------------------------------------------------------|
|-----------------6-6-6-6-6---6---11-11----11-11-11----11-11-11----11-11-11-9-9----|
|-7-7-7-7-7-7-7-7------------------------------------------------------------------|


  E E E E E E E E E E E E E E E E E E E E E E E E E E E E E E E E
|-----9--------------------------------------------------------------|
|-------------------------------------------------------------4-4----|
|-7-7---7-7-7-7-7-7-7-7-7-7-7-6-6-4-4-4-4-4-4-4-4-4-4-6-6-7-7--------|
|--------------------------------------------------------------------|


  E E E E E E E E E E E E E E E E  E  E  E  E  E  E  E  E  E  E  E  E  E  E E E
|---------------------------8---8-------13----------13----------13-----------------|
|----------------------------------------------------------------------------------|
|-----------------6-6-6-6-6---6---11-11----11-11-11----11-11-11----11-11-11-9-9----|
|-7-7-7-7-7-7-7-7------------------------------------------------------------------|


  E E E E E E E E E E E E E E E E E E E E E E E E E E E E E E E E
|--------------------------------------------------------------------|
|--------------------------------------------------------------------|
|-7-7-7-7-7-7-7-7-7-7-7-7-7-7-7-6-7-7-7-7-7-7-7-7-7-7-7-7-7-7-7-7----|
|--------------------------------------------------------------------|


  E E E E E E E E E E E E E E E E E E E E E E E E E E E E E E E E
|--------------------------------------------------------------------|
|--------------------------------------------------------------------|
|-7-7-7-7-7-7-7-7-7-7-7-7-7-7-7-7-7-7-7-7-7-7-7-7-7-7-7-7-7-7-7-7----|
|--------------------------------------------------------------------|


  E E E E E E E E E E E E E E E E E E E E E E E E E E E E E E E E
|--------------------------------------------------------------------|
|--------------------------------------------------------------------|
|-7-7-7-7-7-7-7-7-7-7-7-7-7-7-7-7-7-7-7-7-7-7-7-7-7-7-7-7-7-7-7-7----|
|--------------------------------------------------------------------|


  E E E E E E E E E E E E E E E E E E E E E E E E E E E E E E Q
|------------------------------------------------------------------|
|------------------------------------------------------------------|
|-7-7-7-7-7-7-7-7-7-7-7-7-7-7-7-7-7-7-7-7-7-7-7-7-7-7-7-7-7-7-7----|
|------------------------------------------------------------------|


  Q.  Q E E E   Q  E Q  E E E Q.   Q  E E Q  E E E E E
|-----9-9-9-9---8--8---------------6--4-6-6--4-6-4--------|
|--------------------9--9-9-9----------------------6-4----|
|-----------------------------4---------------------------|
|-0-------------------------------------------------------|


  Q.  Q E E E   Q  E Q  E E E Q.   Q  E E Q  E E E E E
|-----9-9-9-9---8--8---------------6--4-6-6--4-6-4--------|
|--------------------9--9-9-9----------------------6-4----|
|-----------------------------4---------------------------|
|-0-------------------------------------------------------|


  Q.   Q  E E E E.  E E E E E E E E E E E E E E E E E E E
|------9--8-9-8----------------------------------------------|
|---------------9---9-9-9------------------------------------|
|-------------------------9-9-9-9-9-9-9-9-9-9-9-9-9-9-9-9----|
|-0----------------------------------------------------------|


  Q.   Q  E E E E.  E E E E E E E E E E E E E E E E E E E
|------9--8-9-8---------------9-9-----9-9-----9-9-----9-9----|
|---------------9---9-9-9------------------------------------|
|-------------------------7-7-----7-7-----7-7-----7-7--------|
|-0----------------------------------------------------------|


  E E E E E E E E E E E E E E E E E E E E E E E E E E E E E E E E
|-------------------------------8------------------------------------|
|-9-9-9-9-9-9-9-9-9-9-9-9-9---9---9-9-9-9-9-9-9-9-9-9-9-9-9-9-9-9----|
|---------------------------9----------------------------------------|
|--------------------------------------------------------------------|


  E E  E  E E E  E  E E E  E  E E E  E  E E E  E  E E E  E  E E E  E  E E E E E
|----------------------------------------------------------------------------------|
|-9-9-----------------9-9-----------------9-9-----------------9-9---------9-9-9----|
|-----11-11-9-9-11-11-----11-11-9-9-11-11-----11-11-9-9-11-11-----11-11-9----------|
|----------------------------------------------------------------------------------|



***************************************************************************************
* Generated using Power Tab Editor by Brad Larsen - http://powertab.guitarnetwork.org *