The Magic Numbers - Forever Lost Chords & Tabs

 

Forever Lost Chords & Tabs

The Magic Numbers Chords & Tabs

Version: 3 Type: Bass Tab 0 ratings
1 star 2 stars 3 stars 4 stars 5 stars
comments

Forever Lost Bass Tab

-------------------------------------------------------------------------------
			     FOREVER LOST - The Magic Numbers
-------------------------------------------------------------------------------

Tabbed By : David Alsop
e-mail: david@singetheband.co.uk

Tuning: Standard (EADG)

Verse: 
One very simple riff throughout the verses:

G|-------------|
D|----2-2------|       :: repeat ::
A|--2----------|
E|-------------|

Chorus:
G|-------------------|-----------------|---------------|--------------|
D|----7-7------------|-----9-9---------|----6-6--------|--------------|    :: repeat ::
A|-------------------|-----------------|---------------|-4--6--5--7---|    ::  until ::
E|-5------5/---------|-7--------7/-----|-4------4------|--------------|

Bridge:
G|---------|---------|
D|---------|---------|
A|9--(hold)|---------|
E|---------|7--(hold)|


Middle Eight:
(broken up into groups of four to make it easier to read, but play 'em straight through)

G|-----------------------------------|---------------------------6-4-6-4|
D|-----------------------------------|----------------------------------|
A|-7-7-7-7--7-7-7-7--7-7-7-7--7-7-6-6|-4-4-4-4--4-4-4-4--4-4-4-4--------|
E|-----------------------------------|----------------------------------|
[ Tab from: http://www.guitartabs.cc/tabs/t/the_magic_numbers/forever_lost_btab_ver_3.html ]
G|-----------------------------------|---------------------------------------|
D|-6-6-6-6--6-6-6-6--6-6-6-6--6-4-6--|-9-9-9-9--9-9-9-9--9-9-9-9-----9-------|
A|-----------------------------------|----------------------------11---11-9--|
E|-----------------------------------|---------------------------------------|

::repeat::
then end with:

G|----------|----------|----------|----------|
D|----------|----------|----------|----------|
A|-7-7------|-7-7------|-7-7------|-7-7------|
E|--------7-|--------7-|--------7-|--------4-|


G|----------|----------|----------|----------|
D|----------|----------|----------|----------|
A|-4-4------|-4-4------|-4-4------|-4-4------|
E|--------4-|--------4-|--------4-|--------6-|

G|----------|
D|-6-6------|    x 4
A|--------6-|
E|----------|

G|---------------------------------------|
D|-9-9-9-9--9-9-9-9--9-9-9-9-----9-------|
A|----------------------------11---11-9--|
E|---------------------------------------|

G|----------|----------|----------|----------|
D|----------|----------|----------|----------|
A|-7-7------|-7-7------|-7-7------|-7-7------|
E|--------7-|--------7-|--------7-|--------4-|


G|----------|----------|----------|----------|
D|----------|----------|----------|----------|
A|-4-4------|-4-4------|-4-4------|-4-4------|
E|--------4-|--------4-|--------4-|--------6-|

G|----------|----------|----------|----------|----------|
D|------6---|------6---|------6---|------6---|----6--7--|
A|--6-------|--6-------|--6-------|--6-------|--6-------|
E|----------|----------|----------|----------|----------|

:: Pause ::

Chorus

Verse

end on:

G|-------------|
D|------2------| 
A|-------------|
E|-------------|
Comments